>
 >
Land Of Sunshine

Land Of Sunshine Bass Tabs

Faith No More - Land Of Sunshine chords, tabs, tablatures, lyrics

Guitar lessons | Add/correct | Request | Top 50 tabs Artists:  A B C D E F G H I J K L M N O P Q R S T U V W X Y Z 0-9

Land Of Sunshine Bass Tabs – Faith No More

CD, Sheet music, Poster

Do you like Land Of Sunshine? Share with your friends now
Bass TabsBass Tabs v2Bass Tabs v3
Faith No More
Land of Sunshine

    e e e e e e e e e e e e   e e e e e e e e e Q     Q e e e Q e e e
----------------------------|---------------------||----5-3-----5-3---|
12:-------------7-----------|-7-----------------7\||*-------5-------5-|
8-:-0-0-0-0-0-0---0-0-0-0-0-|---0-0-0-0-0-0-0-0---||*-3-------3-------|
----------------------------|---------------------||------------------|
    Intro                                             1st Verse

  q e e e e q e e e e   Q e e e Q e e e   q e e e e q e e e e   Q e e e Q e e e
|---5-r-5-----5-r-5---|---5-3-----5-3---|---5-r-5-----5-r-5---|---5-3-----5-3---|
|-----e---5-----e---5-|-------5-------5-|-----e---5-----e---5-|-------5-------5-|
|-3---s-----3---s-----|-3-------3-------|-3---s-----3---s-----|-3-------3-------|
|-----t---------t-----|-----------------|-----t---------t-----|-----------------|

  q e e e e q e e e e   Q e e e Q e e e   Q e e e Q e e e  2x
|---5-r-5-----5-r-5---|---5-3-----5-3---|---5-3---9--------||
|-----e---5-----e---5-|-------5-------5-|-------5---------*||
|-3---s-----3---s-----|-3-------3-------|-3---------0-1-2-*||
|-----t---------t-----|-----------------|------------------||

  e e e e e e e e e e e e   e e e e e e e e e e e e   e e e e e e e e e e e e
|-------------------------|-------------------------|-------------------------|
|-------------------------|-------------------------|-------------------------|
|-3-3-3-3-3-3-3-3-3-0-1-2-|-3-3-3-3-3-3-3-3-3-0-1-2-|-3-3-3-0-1-2-3-3-3-0-1-2-|
|-------------------------|-------------------------|-------------------------|

  e  e  e  e  e  e  Q  e e e     Q e e e Q e e e   q e e e e q e e e e
|----------------------------||----5-3-----5-3---|---5-r-5-----5-r-5---|
|/10-10-10-10-10-10-10\------||*-------5-------5-|-----e---5-----e---5-|
|----------------------0-1-2-||*-3-------3-------|-3---s-----3---s-----|
|----------------------------||------------------|-----t---------t-----|
                               2nd Verse

  Q e e e Q e e e   q e e e e q e e e e   Q e e e Q e e e   q e e e e q e e e e
|---5-3-----5-3---|---5-r-5-----5-r-5---|---5-3-----5-3---|---5-r-5-----5-r-5---|
|-------5-------5-|-----e---5-----e---5-|-------5-------5-|-----e---5-----e---5-|
|-3-------3-------|-3---s-----3---s-----|-3-------3-------|-3---s-----3---s-----|
|-----------------|-----t---------t-----|-----------------|-----t---------t-----|

  Q e e e Q e e e   Q e e e Q Q  2x e e e e e e e e e e e e
|---5-3-----5-3---|---5-3--------||-------------------------|
|-------5-------5-|-------5-----*||-------------------------|
|-3-------3-------|-3-------0-2-*||-3-3-3-3-3-3-3-3-3-0-1-2-|
|-----------------|--------------||-------------------------|
                                    Chorus

  e e e e e e e e e e e e   e e e e e e e e e e e e   e  e  e  e  e  e  Q  e e e
|-------------------------|-------------------------|----------------------------|
|-------------------------|-------------------------|/10-10-10-10-10-10-10\------|
|-3-3-3-3-3-3-3-3-3-0-1-2-|-3-3-3-0-1-2-3-3-3-0-1-2-|----------------------0-1-2-|
|-------------------------|-------------------------|----------------------------|

  e e e e e e e e e e e e   e e e e e e e e e e e e   e e e e e e e e e e e e
|-------------------------|-------------------------|-------------------------|
|-------------------------|-------------------------|-------------------------|
|-3-3-3-3-3-3-3-3-3-0-1-2-|-3-3-3-3-3-3-3-3-3-0-1-2-|-3-3-3-0-1-2-3-3-3-0-1-2-|
|-------------------------|-------------------------|-------------------------|

  e e e e e e e e e e e e   q e Q Q Q     e e e e e e e e e e e e
|-------------------------|-----r-r-r-||--------------------------|
|-------------------------|-----e-e-e-||*-------------------------|
|-3-3-3-3-3-3-3-3-3-3-3-3-|-3-3-s-s-s-||*-0-0-0-0-0-0-3-0-0-5-0-7-|
|-------------------------|-----t-t-t-||--------------------------|

  e e e e e e e e e e e e  3x  e e e e e e e e e e e e  2x  Q e e e Q e e e
|--------------------------||---------------------------||----5-3-----5-3---|
|-------------------------*||*-------------------------*||*-------5-------5-|
|-----------7-5-0---5---3-*||*-0-0-0-0-0-0-0-0-0-0-0-0-*||*-3-------3-------|
|-0-0-0-0-0-------0---0----||---------------------------||------------------|
                                                          3rd Verse

  q e e e e q e e e e   Q e e e Q e e e   q e e e e q e e e e   Q e e e Q e e e
|---5-r-5-----5-r-5---|---5-3-----5-3---|---5-r-5-----5-r-5---|---5-3-----5-3---|
|-----e---5-----e---5-|-------5-------5-|-----e---5-----e---5-|-------5-------5-|
|-3---s-----3---s-----|-3-------3-------|-3---s-----3---s-----|-3-------3-------|
|-----t---------t-----|-----------------|-----t---------t-----|-----------------|

  q e e e e q e e e e   Q e e e Q e e e   Q e e e Q Q  2x
|---5-r-5-----5-r-5---|---5-3-----5-3---|---5-3--------||
|-----e---5-----e---5-|-------5-------5-|-------5-----*||
|-3---s-----3---s-----|-3-------3-------|-3-------0-2-*||
|-----t---------t-----|-----------------|--------------||

  e e e e e e e e e e e e    e e e e e e e e e e e e   e e e e e e e e e e e e
|-------------------------|-------------------------|-------------------------|
|-------------------------|-------------------------|-------------------------|
|-3-3-3-3-3-3-3-3-3-0-1-2-|-3-3-3-3-3-3-3-3-3-0-1-2-|-3-3-3-0-1-2-3-3-3-0-1-2-|
|-------------------------|-------------------------|-------------------------|
 Chorus

  e  e  e  e  e  e  Q  e e e   e e e e e e e e e e e e
|----------------------------|-------------------------|
|/10-10-10-10-10-10-10\------|-------------------------|
|----------------------0-1-2-|-3-3-3-3-3-3-3-3-3-0-1-2-|
|----------------------------|-------------------------|

  e e e e e e e e e e e e   e e e e e e e e e e e e
|-------------------------|-------------------------|
|-------------------------|-------------------------|
|-3-3-3-3-3-3-3-3-3-0-1-2-|-3-3-3-0-1-2-3-3-3-0-1-2-|
|-------------------------|-------------------------|

  e e e e e e e  e  e  e  e  e    q e Q Q Q     e e e e e e e e e e e e
|-------------------------------|-----r-r-r-||--------------------------|
|-------------10-10-10-10-10-10\|-----e-e-e-||*-------------------------|
|-3-3-3-3-3-3/------------------|-3-3-s-s-s-||*-0-0-0-0-0-0-3-0-0-5-0-7-|
|-------------------------------|-----t-t-t-||--------------------------|
                                              Guitar Solo

  e e e e e e e e e e e e  3x  e e e e e e e e e e e e  2x  q e Q H
|--------------------------||---------------------------||------r-r-|
|-------------------------*||*-------------------------*||*-----e-e-|
|-----------7-5-0---5---3-*||*-0-0-0-0-0-0-0-0-0-0-0-0-*||*-3-3-s-s-|
|-0-0-0-0-0-------0---0----||---------------------------||------t-t-|
                                                          Outro

  e e e e e e e e e e e e  3x  e e e e e e e e e e e e  2x
|--------------------------||---------------------------||
|-------------------------*||*-------------------------*||
|-3-3-3-3-3-3-5-5-5-5-5-5-*||*-0-0-0-0-0-0-0-0-0-0-0-0-*||
|--------------------------||---------------------------||

    e e e e e e e e e e e e  2x Q e e e Q q e     Q e e e Q q e  2x+Q Q H
||---------------------------||---5-3---------||--r-5-3----------||---r-r-||
||*-------------------------*||-------5-------||*-e-----5-------*||---e-e-||
||*-1-1-1-1-1-1-1-1-1-1-1-1-*||-3-------4-4-3-||*-s-------4-4-3-*||-3\s-s-||
||---------------------------||---------------||--t--------------||---t-t-||



1. Credits

All songs by Faith No More except Midnight Cowboy:  by John Barry, 
Performed by Faith No More.  From the album Angel Dust and the maxi-
single Songs To Make Love To.  (C) 1969 EMI U Catalog Inc./Barwin 
Music, Inc. This Arrangement (C) 1992  EMI U Catalog Inc./Barwin 
Music, Inc. (ASCAP)

All transcriptions by Joe White except "A Small Victory" which appeared 
in Guitar For The Practicing Musician, Sept. 1992.  This transcription 
was re-tabbed, as the origional had too many nuances that needn't be
transcribed.

Joe White claims no copyright on these tabs, the copyright belongs to 
Faith No More's publishing company.  Feel free to use these files, edit 
them, etc.  Just give credit to me, like this:


2.  Tablature Explanation
  ===========================================================================
  ==                               All Songs                               ==
  ==             created with a demo version of BUCKET O' TAB              ==
  ==                tablature creation software for Windows                ==
  ==                                                                       ==
  ==                                                                       ==
  ==                         TABLATURE EXPLANATION                         ==
  ===========================================================================

  ----------                ----------                ----t---
  ----5h8--- Hammeron       ----(8)--- Ghost          ----6--- Tap
  ----------                ---------- Note           --------
  ----5p8--- Pulloff        ----------                --------

  ----------                ----------                -----p--
  ----5/8--- Slide Up       -----x---- Dead           -----7-- Pop
  ----------                ---------- Note           --s-----
  ----5\8--- Slide Down     ----------                --5----- Slap 

  ----------                ||------|| Repeat         --------
  ----5~~~-- Vibrato        ||*----*||                ---5^--- Bend
  ----------                ||*----*||                -------- (up, one step)
  ----------                ||------||                --------
                                                         (1)
                             tr~~
  ----------                ---------- Trill to       --------
  -4:------- Time           ---------- note in        ---5^--- Bend
  -4:------- Signature      -0(1)----- parenthesis    -------- (up, 1/2 step)
  ----------                ----------                --------
                                                       (1/2)

Rhythm:
  w = whole note            W = dotted whole
  h = half note             H = dotted half
  q = quarter note          Q = dotted quarter
  e = eighth note           E = dotted eighth
  s = sixteenth note        S = dotted sixteenth
  t = 32nd note             T = dotted 32nd
  x = 64th note             X = dotted 64th
  ^ = triplet               + = tie to previous note





Comments


Popular Faith No More tabs & chords
Caffeine 1 Bass Tabs
Everything's Ruined Bass Tabs
King For A Day Bass Tabs
Stripsearch 1 Bass Tabs
Digging The Grave 2 Tabs
Easy 1 Tabs
Epic 1 Tabs
Midlife Crisis 1 Tabs
Take This Bottle Tabs
War Pigs Tabs


Song lyrics



↑ Back to top | Tablatures and chords are parodies/interpretations of the original songs. You may use it for private study, scholarship, research or language learning purposes only
© 2014 AZChords.com Contact us | Privacy policy | DMCA | Add/correct tabs | Request tabs | Top 50 tabs