» » »

Get Out Tabs (ver.2)

Artists:  A B C D E F G H I J K L M N O P Q R S T U V W X Y Z # 

Get Out Tabs (ver.2)

Faith No More
Rating:
0/5 (0 votes)

Hard to play? Try these video lessons and learn fast.
                FAITH NO MORE
GET OUT

Guitar tuned EADGBe

Intro
  
G-|6---\-|
D-|6---\-|
A-|4---\-|
E-|4---\-|

Main and verse riff
G-|--|----------3-+---|
D-|--|--2-----------2-|
A-|--|----1---4-------|
E-|0-|3-----0---------|

 pm_____    __

Chorus
D-|2-2-5-6-|(6)---5-------5---|----5---2-2-5-6-|-../--|-../--|(6)-6\------------|
A-|0-0-3-4-|(4)-4-4---4-4-4---|4-4-4---0-0-3-4-|--/..-|--/..-|(4)-4\----5-----4-|
E-|--------|------------------|----------------|------|------|----------3-----2-|

A-|(4)-4-4-4-4-4-4-4-|4-4-4-4-4-4-4-4-|5-5---4-|
E-|(2)-2-2-2-2-2-2-2-|2-2-2-2-2-2-2-2-|3-3-0-2-|


A-|(4)-4-4-4-4-4-4-4-|4-4-4-4-4-4-4-4-|5-5---4---4-----|
E-|(2)-2-2-2-2-2-2-2-|2-2-2-2-2-2-2-2-|3-3-0-2---2-0-0-|
                                                  pm__ 

Enjoy
--Tjrd
            
Hard to play? Try these video lessons and learn fast. | Correct




comments powered by Disqus
↑ Back to top | Tablatures and chords are parodies/interpretations of the original songs. You may use it for private study, scholarship, research or language learning purposes only