» » »

Faith No More, Epic Tabs (ver.1)

Artists:  A B C D E F G H I J K L M N O P Q R S T U V W X Y Z # 

Epic Tabs (ver.1)

Faith No More Tabs
 Rating:
4.9/5 (29 votes)
Epic lessons Tabs too difficult? Try these video lessons and learn fast
1
                Epic by Faith No More
Piano ending transcribed for guitar

E5                B5                C5     D5         E5
  |-----------------|-----------------|-----------------|-----------------|
  |-----------------|-----------------|-----------------|-----------------|
  |-----------------|-----------------|-----------------|-----------------|
  |-----------------|-4---------------|-5------7--------|-9---------------|
  |-2---------------|-2---------------|-3------5--------|-7---------------|
  |-0---------------|-----------------|-----------------|-0---------003323|
    1 + 2 + 3 + 4 +   1 + ...                                     PM^^

   Can you feel it, see it...  [no guitar for 8 bars]  ... off your feet!
  |--------|--------|--------|--------|--------|--------|--------|--------|
  |--------|--------|--------|--------|--------|--------|--------|--------|
  |--------|--------|--------|--------|--------|--------|--------|--------|
  |--------|--------|--------|--------|--------|--------|--------|--------|
  |--------|--------|--------|--------|--------|--------|--------|--------|
  |--------|--------|--------|--------|--------|--------|--------|--------|

    You  want  it  all but you can't have it                           It's
    E5                B5                C5     D5         E5
  |-----------------|-----------------|-----------------|-----------------|
  |-----------------|-----------------|-----------------|-----------------|
  |-----------------|-----------------|-----------------|-----------------|
  |-----------------|-4---------------|-5------7--------|-9---------------|
  |-2---------------|-2---------------|-3------5--------|-7---------------|
  |-0---------------|-----------------|-----------------|-0---------003323|
                                                                  PM^^

  crying, bleeding, lyin on t'floor so y'lay dwn on it 'n y'do it s'more You
  |-----------------------------------|-----------------------------------|
  |-----------------------------------|-----------------------------------|
  |-----------------------------------|-----------------------------------|
  |-----------------------------------|-----------------------------------|
  |-----------------------------------|-----------------------------------|
  |-----------------------------------|------------------------------3-3--|
     1   +   2   +   3   +   4   +       1   +   2   +   3   +   4   +

    got to share-it  so you  dare-it    then you bare-it and you tear-it!
  |-----------------------------------|--------------------8---9---10--11-|
  |---------/8---------7-X-8----------|---------/8--------7---8---9---10--|
  |---------/7---------6-X-7----------|---------/7-------6---7---8---9----|
  |---------/6---------5-X-6----------|---------/6------------------------|
  |---------/7---------6-X-7----------|---------/7-------[sweep triplets]-|
  |--3-0(0)--------0-0-----------3-3--|--3-0(0)------0--------------------|
                   PM_|
     1   +   2   +   3   +   4   +       1   +   2   +   3   +   4   + 

   You want it all...                                                  It's
    E5    B5    C   C  D   Em  D   C     E5
  |-----|-----|-----------------------|-----------------------------------|
  |-----|-----|-[two-guitar harmony]--|-----------------------------------|
  |-----|-----|-----------------------|-----------------------------------|
  |-----|-4---|-2---2--4/5-5\4-4\2-2--|--9-------9-------9----------------|
  |-2---|-2---|-3---3--5/7-7\5-5\3-3--|--7-------7-------7----------------|
  |-0---|-----|-----------------------|----0-0-0---0-0-0---0-0-0-3-3-2-3--|
                                           PM___|  PM___|  PM___|
    1...  1...  1 + 2  +   3   +   4     1   +   2   +   3   +   4   +

   alive afraid a lie a sin it's magic it's tragic it's a loss it's a win
  |-----------------------------------|-----------------------------------|
  |-----------------------------------|-----------------------------------|
  |-----------------------------------|-----------------------------------|
  |-----------------------------------|-----------------------------------|
  |-----------------------------------|-----------------------------------|
  |-----------------------------------|------------------------------3-3--|


It's dark it's moist it's a bitter pain it's sad it happnd' and it's a shame!
  |-----------------------------------|--------------------8---9---10--11-|
  |---------/8---------7-X-8----------|---------/8--------7---8---9---10--|
  |---------/7---------6-X-7----------|---------/7-------6---7---8---9----|
  |---------/6---------5-X-6----------|---------/6------------------------|
  |---------/7---------6-X-7----------|---------/7-------[sweep triplets]-|
  |--3-0(0)--------0-0-----------3-3--|--3-0(0)------0--------------------|
                 PM^^^
     1   +   2   +   3   +   4   +       1   +   2   +   3   +   4   + 

   You want it all...
    E5    B5    C   C  D   Em  D   C     E5
  |-----|-----|-----------------------|-----------------------------------|
  |-----|-----|-[two-guitar harmony]--|-----------------------------------|
  |-----|-----|-----------------------|-----------------------------------|
  |-----|-4---|-2---2--4/5-5\4-4\2-2--|--9-------9-------9----------------|
  |-2---|-2---|-3---3--5/7-7\5-5\3-3--|--7-------7-------7----------------|
  |-0---|-----|-----------------------|----0-0-0---0-0-0---0-0-0-3-3-2-3--|
                                           PM___|  PM___|  PM___|

   It's in your face...                                               It's
    E5    B5    C   C  D   Em  D   C     E5
  |-----|-----|-----------------------|-----------------------------------|
  |-----|-----|-[two-guitar harmony]--|-----------------------------------|
  |-----|-----|-----------------------|-----------------------------------|
  |-----|-4---|-2---2--4/5-5\4-4\2-2--|--9-------9-------9----------------|
  |-2---|-2---|-3---3--5/7-7\5-5\3-3--|--7-------7-------7----------------|
  |-0---|-----|-----------------------|----0-0-0---0-0-0---0-0-0-3-3-2-3--|
                                           PM___|  PM___|  PM___|


     it     what is  it           It's   it     what is  it
  |-----------------------------------|-----------------------------------|
  |-----------------------------------|-----------------------------------|
  |-----------------------------------|-----------------------------------|
  |--9-------9-------9----------------|--9-------9-------9----------------|
  |--7-------7-------7----------------|--7-------7-------7----------------|
  |----0-0-0---0-0-0---0-0-0-3-3-2-3--|----0-0-0---0-0-0---0-0-0-3-3-2-3--|
       PM___|  PM___|  PM___|              PM___|  PM___|  PM___|


     it     what is  it           It's   it     what is  it
  |-----------------------------------|-----------------------------------|
  |-----------------------------------|-----------------------------------|
  |-----------------------------------|-----------------------------------|
  |--9-------9-------9----------------|--9-------9-------9----------------|
  |--7-------7-------7----------------|--7-------7-------7----------------|
  |----0-0-0---0-0-0---0-0-0-3-3-2-3--|----000-00--000-00--000-00323-2-3--|
       PM___|  PM___|  PM___|              PM___|  PM___|  PM___|


  Two guitars:
   Guitar 1
  |-----------------|-0---------------|-----------------|-----------------|
  |-----------------|-[let ring]------|-----------------|-----------------|
  |-----------------|--------0--------|-----------------|-----------------|
  |-----------------|-----------------|-----------------|-----------------|
  |-2---------------|(2)--------------|-2---------------|(2)--------------|
  |-0---------------|(0)--------------|-0---------------|(0)--------------|
  |
  |Guitar 2
  |-----------------|-----------------|-----------------|-----------------|
  |-----------------|-----------------|-----------------|-----------------|
  |-----------------|-----------------|------------5-4--|(4)--------------|
  |-----------------|-----------------|-----------------|-----------------|
  |-2---------------|(2)--------------|-(2)-------------|-----------------|
  |-0---------------|(0)--------------|-(0)-------------|-----------------|



   Guitar 1
  |-----------------|-----------------|-----------------|-----------------|
  |-----------------|-----------------|-10------13------|-15-----12-------|
  |-5-------7-------|-9------12-------|-----------------|-----------------|
  |-----------------|-----------------|-7-------10------|-12-----9--------|
  |-3-------5-------|-7------10-------|-----------------|-----------------|
  |-----------------|-----------------|-----------------|-----------------|
  |
  |Guitar 2
  |-----------------|-----------------|-----------------|-----------------|
  |-----------------|-----------------|-----------------|-----------------|
  |-5-------7-------|-9------12-------|-5-------7-------|-9------12-------|
  |-----------------|-----------------|-----------------|-----------------|
  |-3-------5-------|-7------10-------|-3-------5-------|-7------10-------|
  |-----------------|-----------------|-----------------|-----------------|


Guitar 1
----------3------------5-------3--1-0-1-0-0-----------3------------5--1-0-1--0--0-----------
-------4----0---2-4-5—4/(5)------------2-2-0-----4---0---2-4-4---------------2--2-0------
----2------------------------------------------------2---------------2----------------------------
--0------------------------------------------------0-----------------------------------------------

Guitar 2
--------------------------------0---0---0---0------------------------------0---0---0----0-------
------2-----2----2----2-------2---2---2---2-------2----2----2---2------2---2---2----2-------
------2-----2----2----2-----3---3---3---3---------2----2----2---2----3---3---3----3---------
---0-----0----0----0-----------------------------0----0----0----0-------------------------------


Last part
Guitar1
--------------0---------------12-------15------------19-(hold this note)---------------------
-----------3----------/12-------------------------------------------------------------------------
--------4------------------------------------------------------------------------------------------
-----2---------------------------------------------------------------------------------------------
---0-----------------------------------------------------------------------------------------------
            
Submit corrections

comments powered by Disqus
↑ Back to top | Faith No More Tabs for Epic. Lyrics for acoustic guitar and electric guitar. 1 Tablatures and chords are parodies/interpretations of the original songs. You may use it for private study, scholarship, research or language learning purposes only