» » »

Crack Hitler Bass tabs (ver.2)

Artists:  A B C D E F G H I J K L M N O P Q R S T U V W X Y Z # 

Crack Hitler Bass tabs (ver.2)

Faith No More
Rating:
5/5 (1 vote)

Hard to play? Try these video lessons and learn fast.
                
I've only seen one other tab for this online, and the guy who posted it must have been on crack.

Key:
T = Thump
P = Pop
h = hammer on
p = pull off
/ = slide down
(but if you don't know these by now you might want to start with something easier)

G|-------------------------------------|
D|-------------------------------------| x3
A|-------------------------------------|
E|--0-0-----0-0-0-----0-0-0-----0-0-0--|
(You can slap if you want, it sounds fine both ways)



G|------------------------------------------|
D|------------------------------------------| x1
A|------------------------------------------|
E|--0-0-----0-0-0-----0-0-----0-0-0-----12/-|



G|---------9-------9-------9-----|
D|-------------------------------|
A|-----0h7-----0h7-----0h7-------|  x16
E|-0-0---------------------------|

   T T T   P   T   P   T   P



G|--------------------------------------------------------|
D|--------------------------------------------------------|
A|--------------------------------------------------------|
E|--2--2-----0-2--2-2-----0-2--2-2-----0-2--2-2---0-------|



G|--------------------------------------------------------|
D|------------------------------------------------7/------|
A|--------------------------------------------------------|
E|--2--2-----0-2--2-2-----0-2--2-2-----0-2--2-2-----------|



G|--------------------------------------------------------|
D|--------------------------------------------------------|
A|--------------------------------------------------------|
E|--2--2-----0-2--2-2-----0-2--2-2-----0-2--2-2---0-------|



G|--------------------------------------------------------|
D|--------------------------------------------------------|
A|--------------------------------------------------------|
E|--2--2-----0-2--2-2-----0-2--2-2-----0-2--2-2---3-------|




G|---------9-------9-------9-----|
D|-------------------------------|
A|-----0h7-----0h7-----0h7-------|  x8
E|-0-0---------------------------|

   T T T   P   T   P   T   P




G|--------------------------------------------------------|
D|--------------------------------------------------------|
A|--------------------------------------------------------|
E|--2--2-----0-2--2-2-----0-2--2-2-----0-2--2-2---0-------|



G|--------------------------------------------------------|
D|------------------------------------------------7/------|
A|--------------------------------------------------------|
E|--2--2-----0-2--2-2-----0-2--2-2-----0-2--2-2-----------|



G|--------------------------------------------------------|
D|--------------------------------------------------------|
A|--------------------------------------------------------|
E|--2--2-----0-2--2-2-----0-2--2-2-----0-2--2-2---0-------|



G|--------------------------------------------------------|
D|--------------------------------------------------------|
A|--------------------------------------------------------|
E|--2--2-----0-2--2-2-----0-2--2-2-----0-2--2-2---3-------|



G|--------------------------------------------------------|
D|--------------------------------------------------------|
A|--2-----0-0-2-----0-0-3-----0-0-3-----5-5---------------|
E|--------------------------------------------------------|




G|---------9-------9-------9-----|
D|-------------------------------|
A|-----0h7-----0h7-----0h7-------|  x8
E|-0-0---------------------------|

   T T T   P   T   P   T   P



G|--------------------------------------------------------|
D|--------------------------------------------------------|
A|--------------------------------------------------------|
E|--2--2-----0-2--2-2-----0-2--2-2-----0-2--2-2---0-------|



G|--------------------------------------------------------|
D|------------------------------------------------7/------|
A|--------------------------------------------------------|
E|--2--2-----0-2--2-2-----0-2--2-2-----0-2--2-2-----------|



G|--------------------------------------------------------|
D|--------------------------------------------------------|
A|--------------------------------------------------------|
E|--2--2-----0-2--2-2-----0-2--2-2-----0-2--2-2---0-------|



G|--------------------------------------------------------|
D|--------------------------------------------------------|
A|--------------------------------------------------------|
E|--2--2-----0-2--2-2-----0-2--2-2-----0-2--2-2---3-------|



G|------------------------------------------|
D|------------------------------------------| x2
A|--2-----0-0-2-----0-0-3-----0-0-3-----5-5-|
E|------------------------------------------|



G|-------------------------------------|
D|-------------------------------------| x3
A|-------------------------------------|
E|--0-0-----0-0-0-----0-0-0-----0-0-0--|

G|----------7---------------------------------------------|
D|------7h9-----9p7---------------------------------------|
A|--------------------------------------------------------|
E|--0-0-------------0-0-----0-0-0-----0-0-0---12/----12/--|



G|---------9-------9-------9-----|
D|-------------------------------|
A|-----0h7-----0h7-----0h7-------|  x16
E|-0-0---------------------------|

   T T T   P   T   P   T   P


G|-----------------------------|
D|-----------------------------|
A|--7-7-7----7-7-7-------------|
E|-----------------------------|
            
Hard to play? Try these video lessons and learn fast. | Correct




comments powered by Disqus
↑ Back to top | Tablatures and chords are parodies/interpretations of the original songs. You may use it for private study, scholarship, research or language learning purposes only