» » »

Faith No More, Anne's Song Bass tabs (ver.2)

Artists:  A B C D E F G H I J K L M N O P Q R S T U V W X Y Z # 

Anne's Song Bass tabs (ver.2)

Faith No More Tabs
 Rating:
4/5 (4 votes)
Anne's Song lessons Tabs too difficult? Try these video lessons and learn fast
1
                Anne's Song
(C) 1987 Big Thrilling Music/Faith No More Music (ASCAP)

   e     e e e e q e e   q e e e e e e   e e e e q e e   q q q e e  11x    
-----||------------r---|---r-----------|-----------r---|------------||
4:---||*---7-------e---|---e-----------|---7-------e---|-----------*||
4:---||*-----------s---|---s-----------|-----------s---|-----------*||
---0-||--5---x-0-3-t-0-|-5-t-0-3-0-3-0-|-5---x-0-3-t-0-|-5-7-0-3-0--||

    q e e e e e e   e e e e e e e e   q e e e e e e   e e e e e e e e  2x
||----------------|-----------------|---------------|------------------||
||*---------------|-----------------|---------------|-----------------*||
||*---------------|-----------------|---------------|-----------------*||
||--2-2-2-2-2-2-2-|-2-2-2-2-2-2-0-2-|-3-3-3-3-3-3-3-|-3-3-3-3-3-3-0-0--||
                                                                           
    e e e e q e e   q e e e e e e   e e e e q e e   q e e q e e  2x
||------------r---|---r-----------|-----------r---|--------------||
||*---7-------e---|---e-----------|---7-------e---|-------------*||
||*-----------s---|---s-----------|-----------s---|-------------*||
||--5---x-0-3-t-0-|-5-t-0-3-0-3-0-|-5---x-0-3-t-0-|-5-7-0-0-3-0--||

    e e e e q q   H e e   e e e e e q   H e e  2x  e e e e q e e
||------------r-|-r-r---|-----------r-|-r-r----||------------r---|
||*---7-------e-|-e-e---|---7-------e-|-e-e---*||*---7-------e---|
||*-----------s-|-s-s---|-----------s-|-s-s---*||*-----------s---|
||--5---x-0-3-t-|-t-t-0-|-5---x-0-3-t-|-t-t-0--||--5---x-0-3-t-0-|

  q e e e e e e   e e e e q e e   q q q e e  2x    q e e e e e e
|---r-----------|-----------r---|------------||----------------|
|---e-----------|---7-------e---|-----------*||*---------------|
|---s-----------|-----------s---|-----------*||*---------------|
|-5-t-0-3-0-3-0-|-5---x-0-3-t-0-|-5-7-0-3-0--||--2-2-2-2-2-2-2-|

  e e e e e e e e   q e e e e e e   e e e e e e e e      e e e e q e e
|-----------------|---------------|------------------||------------r---|
|-----------------|---------------|-----------------*||*---7-------e---|
|-----------------|---------------|-----------------*||*-----------s---|
|-2-2-2-2-2-2-0-2-|-3-3-3-3-3-3-3-|-3-3-3-3-3-3-0-0--||--5---x-0-3-t-0-|
                                                         Guitar Solo

  q e e e e e e   e e e e q e e   q q q e e  4x  q e e e e e e
|---r-----------|-----------r---|------------||----------------|
|---e-----------|---7-------e---|-----------*||*---------------|
|---s-----------|-----------s---|-----------*||*---------------|
|-5-t-0-3-0-3-0-|-5---x-0-3-t-0-|-5-7-0-3-0--||--2-2-2-2-2-2-2-|

  e e e e e e e e   q e e e e e e   e e e e e e e e  2x  e e e e q e e
|-----------------|---------------|------------------||------------r---|
|-----------------|---------------|-----------------*||*---7-------e---|
|-----------------|---------------|-----------------*||*-----------s---|
|-2-2-2-2-2-2-0-2-|-3-3-3-3-3-3-3-|-3-3-3-3-3-3-0-0--||--5---x-0-3-t-0-|

  q e e e e e e   e e e e q e e   q q q e e  6x  q e^e^e^q e^e^e^
|---r-----------|-----------r---|------------||------------------|
|---e-----------|---7-------e---|-----------*||*-----------------|
|---s-----------|-----------s---|-----------*||*-----------------|
|-5-t-0-3-0-3-0-|-5---x-0-3-t-0-|-5-7-0-3-0--||--5-5-5-5-5-5-5-5-|
                                                 Fade Out

  q e^e^e^q^q^q^  q e^e^e^q e^e^e^  q e^e^e^q^q^q^ 3x q e^e^e^q e^e^e^
|---------------|-----------------|----------------||-----------------|
|---------------|-----------------|---------------*||-----------------|
|---------------|-----------------|---------------*||-----------------|
|-5-5-5-5-5-5-5-|-3-3-3-3-3-3-3-3-|-3-3-3-3-3-3-3--||-5-5-5-5-5-5-5-5-|
                                                      Fade In

 q e^e^e^q^q^q^  q e^e^e^q e^e^e^   q e^e^e^q^q^q^  q e^e^e^q e^e^e^
|---------------|-----------------|---------------|-----------------||
|---------------|-----------------|---------------|-----------------||
|---------------|-----------------|---------------|-----------------||
|-5-5-5-5-5-5-5-|-3-3-3-3-3-3-3-3-|-3-3-3-3-3-3-3-|-5-5-5-5-5-5-5-5-||
                                                             Segue to 
                                                           "Introduce
                                                            Yourself"
            
Submit corrections

comments powered by Disqus
↑ Back to top | Faith No More Bass for Anne's Song. Lyrics for acoustic guitar and electric guitar. 1 Tablatures and chords are parodies/interpretations of the original songs. You may use it for private study, scholarship, research or language learning purposes only