» » »

Faint, Birth Bass tabs (ver.1)

Artists:  A B C D E F G H I J K L M N O P Q R S T U V W X Y Z # 

Birth Bass tabs (ver.1)

Faint Tabs
Rating:
1/5 (2 votes)
Birth lessons Tabs too difficult? Try these video lessons and learn fast
                Intro
Guitar- 0:00- 0:15

Verse 1 (main riff) - 0:16-0:56
G ------------------------------------------------------------|
D --------------5------------------------------5--------------|
A 77-77-7777-775-77-77-7777-7755-33-33-3333-335-77-77-7777----| x3
E ------------------------------------------------------------|

Bridge 0:57-1:07 - the guitar plays this, but you can play it on the bass too.

G -----------------------------------------------------------|
D -----------------------------------------------------------|
A 7-10-12-9-10-7-9-7-10-12-9-10-9-7--------------------------| x1
E ----------------7------------------------------------------|

Verse 2 (main riff x4) 1:08-2:08. The tempo suddenly picks up near the end of verse two 
listen out and there are also a couple of fills that are hard to make out.

Bridge 2 2:09-2:34 - there's no bass, but 2:23-2:34 is the same as the first bridge.

Outro 2:34-2:59

G -------------------------------------------------------------|
D -------------------------------------------------------------|
A 777-101010-121212-999-101010-777-999-------------------------|
E ------------------------------------777----------------------|

G ------------------------------------------------------------|
D ------------------------------------------------------------|
A 777-101010-121212-999-101010-999----------------------------|
E --------------------------------0~--------------------------|  x2

 the 101010 and 121212 are 10's and 12's.
Have fun guys!
            

comments powered by Disqus
↑ Back to top | Faint Bass for Birth. Lyrics for acoustic guitar and electric guitar. Tablatures and chords are parodies/interpretations of the original songs. You may use it for private study, scholarship, research or language learning purposes only