» » »

Ephedrine Tabs (ver.2)

Artists:  A B C D E F G H I J K L M N O P Q R S T U V W X Y Z # 

Ephedrine Tabs (ver.2)

Factory 81
Rating:
0/5 (0 votes)

Hard to play? Try these video lessons and learn fast.
                
Tuning: Dropped C (C G C F A D)

Intro
|---|
|---|
|---|
|-0-|
|-0-|
|-0-|
Hit this and turn your volume knob up then down a little and repeat that
to make it sound like the recording.

|------------------------------------------------|
|------------------------------------------------|
|------------------------------------------------|
|-0-0-0-5^----0-0-0-1h3-1h3--0-0-0-5^----0-0-0-1-|
|-0-0-0----5^-0-0-0-1h3-1h3--0-0-0----5^-0-0-0-1-|
|-0-0-0-------0-0-0-1h3-1h3--0-0-0-------0-0-0-1-|x6
  PM---|      PM---|         PM---|      PM---|

Verse
|--------------------------------|
|--------------------------------|
|--------------------------------|
|-0-0-0--------------------------|
|-0-0-0--5h6p5h6p5h6p5h6p5h6p5h6-|
|-0-0-0--------------------------|x4
  PM---|

Chorus
|------------------------|
|------------------------|
|------------------------|
|-0-0-0-1-0-0--0-0-1h3-5-|
|-0-0-0-1-0-0--0-0-1h3-5-|
|-0-0-0-1-0-0--0-0-1h3-5-|x4
  PM-|

|---------------------------|
|---------------------------|
|----------------------2.3^-|
|-0-0-0-1-0-0--0-0-1h3------|
|-0-0-0-1-0-0--0-0-1h3------|
|-0-0-0-1-0-0--0-0-1h3------|x4

Play verse and chorus same way again

Bridge
|-------------------------|
|-------------------------|
|-------------------------|
|-0-0-0-6p5-0-3-0-3-0-3\1-|
|-0-0-0-6p5-0-3-0-3-0-3\1-|
|-0-0-0-6p5-0-3-0-3-0-3\1-|x6
  PM-|

Interlude
|----------------------------------------------------------------------------|
|----------------------------------------------------------------------------|
|----------------------------------------------------------------------------|
|-7-7-8-8-8-3--3-3-3-3-3-3-3-3-3-3-3-3--7-7-8-8-8-3--3-3-3-3-3-3-3-3-3-3-3-3-|
|-7-7-8-8-8-3--3-3-3-3-3-3-3-3-3-3-3-3--7-7-8-8-8-3--3-3-3-3-3-3-3-3-3-3-3-3-|
|-7-7-8-8-8-3--3-3-3-3-3-3-3-3-3-3-3-3--7-7-8-8-8-3--3-3-3-3-3-3-3-3-3-3-3-3-|x2
                       PM-------------|

Play the verse and chorus the same again
Then repeat bridge and interlude the same way


|--------|
|--------|
|--------|
|-0~~~~~-|
|-0~~~~~-|
|-0~~~~~-|
On the CD he starts to get feedback while it rings out
Then play this:
|-------------------------|
|-------------------------|
|-------------------------|
|-0-0-0-6p5-0-3-0-3-0-3\1-|
|-0-0-0-6p5-0-3-0-3-0-3\1-|
|-0-0-0-6p5-0-3-0-3-0-3\1-|x8
No palm mutes this time

Play the inturlude 4 times and at 4:05 they're a fill
Fill
|----------|
|----------|
|----5^----|
|-5^----5^-|
|----------|
|----------|

On the 4th time of playing the interlude you play it like this:
|--------------------------------------------------------------------------|
|--------------------------------------------------------------------------|
|--------------------------------------------------------------------------|
|-7-7-8-8-8-3--3-3-3-3-3-3-3-3-3-3-3-3--7-7-8-8-8-3~~--------------------0-|
|-7-7-8-8-8-3--3-3-3-3-3-3-3-3-3-3-3-3--7-7-8-8-8-3~~--------------------0-|
|-7-7-8-8-8-3--3-3-3-3-3-3-3-3-3-3-3-3--7-7-8-8-8-3~~--------------------0-|
                       PM-------------|                           Heavy PM
            
Hard to play? Try these video lessons and learn fast. | Correct




comments powered by Disqus
↑ Back to top | Tablatures and chords are parodies/interpretations of the original songs. You may use it for private study, scholarship, research or language learning purposes only