» » »

I Want Tabs (ver.1)

Artists:  A B C D E F G H I J K L M N O P Q R S T U V W X Y Z # 

I Want Tabs (ver.1)

Face To Face
Rating:
0/5 (0 votes)

Hard to play? Try these video lessons and learn fast.
                Intro
E|---------------------------------------------
B|---------------------------------------------
G|--10-----10--7/10/5/7/3--10/9--10--12--10----
D|--10--8--10--7/10/5/7/3--10/9--10--12--10----
A|--8---8--8---5/8//3/5/1--8//7--8---10--8-----
E|------6--------------------------------------
    ^                     ^
  Repeat         repeat several times

Pre-Verse
E|-----0--1-----0--1-----0--1--3--1--0---------
B|--1--------1------- 1------------------------
G|---------------------------------------------
D|---------------------------------------------
A|---------------------------------------------
E|---------------------------------------------

Verse (Everybody wants…):
E|---------------------------------------------
B|---------------------------------------------
G|--10-----------------------------------------
D|--10--10--5--8--7----------------------------
A|--8---10--5--8--7----------------------------
E|------8---3--6--5----------------------------

Pre-Chorus (I really don’t…)
E|---------------------------------------------
B|---------------------------------------------
G|--10---------10------------------------------
D|--10--10--8--10--10--------------------------
A|--8---10--8--8---10--------------------------
E|------8---6------8---------------------------

Chorus
E|--------------------------------------------
B|--------------------------------------------
G|--10--7/10/5/7/3----------------------------
D|--10--7/10/5/7/3----------------------------
A|--8---5/8//3/5/1----------------------------
E|--------------------------------------------

Bridge:
E|--------------------------------------------
B|--------------------------------------------
G|--7-----5--3--10----------------------------
D|--7--3--5--3--10----------------------------
A|--5--3--3--1--8-----------------------------
E|-----1--------------------------------------

Song Order
Intro
Pre-Verse
Verse
Pre-Chorus
Chorus
Pre-Verse
Verse
Pre-Chorus
Chorus
Bridge
Chorus
End on F
            
Hard to play? Try these video lessons and learn fast. | Correct




comments powered by Disqus
↑ Back to top | Tablatures and chords are parodies/interpretations of the original songs. You may use it for private study, scholarship, research or language learning purposes only