» » »

Face To Face, I Know You Well Bass tabs (ver.1)

Artists:  A B C D E F G H I J K L M N O P Q R S T U V W X Y Z # 

I Know You Well Bass tabs (ver.1)

Face To Face Tabs
 Rating:
4/5 (4 votes)
I Know You Well lessons Tabs too difficult? Try these video lessons and learn fast
                Face To Face



Verse:
G:----------------------------------------------------------------
D:----------------------------------------------------------------
A:-999-999\5555555/999-999\5555555/999-999\5555555/777-777\222222-
E:----------------------------------------------------------------


Chorus:
G:------------------------------------------------
D:------------------------------------------55555-
A:------5555555-7777------------55555-77777-------
E:-5555--------------3323-55555-------------------


Bridge1:
G:---------------------------------
D:---------------------------------
A:-555-555-2222222-----------------
E:-----------------222-222-3333333-


Bridge2:
G:-77-55------------------------------
D:-------77-5-77-55-------------------
A:------------------77-5--------------
E:-----------------------22222-333333-

G:-77-55---------55-------------------
D:-------77-5-77----77-5--------------
A:------------------------------------
E:-----------------------22222-333333-


Outro:
G:------
D:------
A:-9-\0-
E:------


Verse (3x)
Chorus (2x)
Verse (2x)
Chorus (2x)
Bridge1 (4x)
Bridge2
Verse
Chorus (2x)
Outro
            
Submit corrections

comments powered by Disqus
↑ Back to top | Face To Face Bass for I Know You Well. Lyrics for acoustic guitar and electric guitar. Tablatures and chords are parodies/interpretations of the original songs. You may use it for private study, scholarship, research or language learning purposes only