» » »

Face To Face, Anybody Listening? Tabs (ver.1)

Artists:  A B C D E F G H I J K L M N O P Q R S T U V W X Y Z # 

Anybody Listening? Tabs (ver.1)

Face To Face Tabs
Rating:
0/5 (0 votes)
Anybody Listening? lessons Tabs too difficult? Try these video lessons and learn fast
                Well, this song is mainly divided into 2 verses, wich will repeat all over the song
plus 2 solos and the ending.

Verse 1:

You're calling out
And no one pays attention
Looks like everything is still the same
It's nothing we can change

e|-------------------------|
B|-------------------------|
G|---------4-----6-----2---| <- play every note x8
D|---2-----4-----6-----2---|
A|---2-----2-----4-----0---|
E|---0---------------------|

Verse 2:

Charity is an illusion
No one really owns a thing
Complication and confusion
To ease your suffering and pain
1st time 2nd time
e|------------------------------------------|----------|----------|
B|------------------------------------------|---(x8)---|---(x8)---|
G|---5-5-5-5----------55--------------------|-----9----|----11----|
D|---5-5-5-5-----5555-55-555-----77777777---|-----9----|----11----|
A|---3-3-3-3-----5555-33-555-----77777777---|-----7----|-----9----|
E|---------------3333----333-----55555555---|----------|----------|

Solo:

e|--------------------------------------------------------------------------------|
B|-----------------------------------77777777--------101010101010101099999999-----|
G|---99999999999999998888888888888888--------99999999-----------------------------|
D|--------------------------------------------------------------------------------|
A|--------------------------------------------------------------------------------|
E|--------------------------------------------------------------------------------|

e|--------------------------------------------------------------------------------|
B|-------------------7777777777777777101010101010101099999999---------------------|
G|---9999999999999999----------------------------------------9999999999999999-----|
D|--------------------------------------------------------------------------------|
A|--------------------------------------------------------------------------------|
E|--------------------------------------------------------------------------------|

Solo 2:
1st time 2nd time
e|------------------------------------------------------|----------|----------|
B|------------------------------------------------------|---(x16)--|----------|
G|---999999999999999988888888888888889999999999999999---|-----9----|---Pick---|
D|------------------------------------------------------|----------|---Slide--|
A|------------------------------------------------------|----------|---<<<<---|
E|------------------------------------------------------|----------|---<<<<---|

Ending:

e|-----------------------------------------------|
B|-----------------------------------------------|
G|--------------5-5-5-5--------------------------|
D|---22222222---5-5-5-5---5-^------5-------0-----|
A|---22222222---3-3-3-3---5-bend---5-Slide-0-----|
E|---00000000-------------3-up-----3--to---0-----|

Song Order:

Verse 1 (x2)
Verse 2 (x2)
Verse 1 (x2)
Verse 2 (x2)
Solo (x1)
Verse 2 (x2)
Solo 2 (x1)
Verse 1 (x2)
Ending (x1)
            
Submit corrections

comments powered by Disqus
↑ Back to top | Face To Face Tabs for Anybody Listening?. Lyrics for acoustic guitar and electric guitar. Tablatures and chords are parodies/interpretations of the original songs. You may use it for private study, scholarship, research or language learning purposes only