>
 >
Stay With Me

Stay With Me Bass Tabs

Faces - Stay With Me chords, tabs, tablatures, lyrics

Guitar lessons | Add/correct | Request | Top 50 tabs Artists:  A B C D E F G H I J K L M N O P Q R S T U V W X Y Z 0-9

Stay With Me Bass Tabs – Faces

CD, Sheet music, Poster

Do you like Stay With Me? Share with your friends now
Bass TabsBass Tabs v2
  
INTRO 

G-----|--------------------------------|----------------------------| 
D-----|-----------------------11-11--9-|-------------9--7--7-7-7--5-| 
A-5-6-|-7--7--7-7--7--7-7--7-----------|-5-5--5-5-5-----------------| 
E-----|--------------------------------|----------------------------| 

G------------------------------------|----------------------------------| 
D----7-------7-----------------------|----7-------7---------------------| 
A-0-----7-9-----10-10--10-10--9-9--7-|-0-----7-9-----10-10--10-10--5--6-| 
E------------------------------------|----------------------------------| 

G----------------------------------|----------------------------------| 
D------------11--11--11-11--9-9--7-|---------------9--9--9-9--7-7---4-| 
A-7--7-7--7--7---------------------|-5--5-5--5--5---------------------| 
E----------------------------------|----------------------------------| 

VERSE 

G--r--|----------------|-----5--4------------|-----------------| 
D--e--|-----7--6-------|-----------7-------7-|----5--4--2------| 
A--s--|-----------9--2\|-5------------5\9----|-0---------------| 
E--t--|-7--------------|---------------------|-------------2-3-| 

G--------------|------------------|-----5--4----------|-----------------| 
D------5--4----|-------7--6-------|-----------7-------|----5--4--2------| 
A------------7-|-------------9--2\|-5-------------0-5-|-0---------------| 
E-5-5----------|-7-7--------------|-------------------|-------------2-3-| 

In the… 
G-----------------|----------------|------5--4------------|-------------------| 
D------5--4-------|-----7--6-------|------------7-------7-|------5--4--2------| 
A------------7----|-----------9--2\|-5-5-----------5\9----|-0-0---------------| 
E-5-5-----------5\|-7-7------------|----------------------|---------------2-3-| 

G-----------------|-----------------|------5--4------------|--------------------| 
D------5--4-------|------7--6-------|------------7-------7-|-----------7--------| 
A------------7----|------------9--2\|-5-5-----------5\9----|-0-7--7-9-----9-7-9-| 
E-5-5-----------5\|-7-7-------------|----------------------|--------------------| 
guitar 
G----------------------|------------------------|------5--4------------| 
D------5--4------------|------7--6--------------|------------7-------7-| 
A------------7-------7-|------------9-------6-9-|-5-5-----------5\9----| 
E-5-5-----------5\9----|-7-7-----------5\7------|----------------------| 

G-------------------| 
D------5--4--2------| 
A-0-0---------------| 
E---------------2-3-| 

Won’t need…. 
G-----------------|-----------------|------5--4-------|----------------------| 
D------5--4-------|------7--6-------|------------7----|------5--4--2-------2-| 
A------------7----|------------9--2\|-5-5-------------|-0-0-----------0-4----| 
E-5-5-----------5\|-7-7-------------|---------------5/|----------------------| 

G-----------------|-----------------|------5--4----|--------------------| 
D------5--4-------|------7--6-------|------------7-|------5--4-~3~~2~---| 
A------------7----|------------9--2\|-5-5----------|------------------0-| 
E-5-5-----------5\|-7-7-------------|--------------|-3\5----------------| 

Stay with me 
G----------------------|-----------------|------5--4------------| 
D------5--4------------|------7--6-------|------------7-------7-| 
A------------7-------7-|------------9--2\|-5-5-----------5\9----| 
E-5-5-----------5\9----|-7-7-------------|----------------------| 

G-------------------|----------------------|-----------------------| 
D------5--4--2------|------5--4------------|------7--6-------------| 
A-0-0---------------|------------7-------7-|------------9--------9-| 
E---------------2-3-|-5-5-----------5\9----|-7-7-----------7\11----| 

                                                                                   Ahh.. 
G------5--4------------|-------------------|-----------------| 
D------------7-------7-|------5--4--2------|-----------------| 
A-5-5-----------5\9----|-0-0---------------|------\9--9-9--7/| 
E----------------------|---------------2-3-|-5-5-------------| 

G-----------------------|----------------|--------------------------| 
D-----------------------|----\9-9-9-9--7/|-2--3--4--5--3-3--4--5--6-| 
A------\11-11-11-11-9/2\|-5--------------|--------------------------| 
E-7-7-------------------|----------------|--------------------------| 

G-------------------|---------------------------|----7-----7-7---------| 
D-7-7--7------------|------9-----9-9------------|--------------------7-| 
A-----------------7-|------------------------~9~|-5-----5-------5\9----| 
E---------5--5\9----|-7-7-----7-------7\11-7----|----------------------| 

G--------------------| 
D--------------------| 
A-0-7--7-9-10--9-7-9-| 
E--------------------| 

So in the…… 
G----------------------|-----------------------|------5--4------------| 
D------5--4------------|------7--6-------------|------------7-------7-| 
A------------7-------7-|------------9--------9-|-5-5-----------5\9----| 
E-5-5-----------5\9----|-7-7-----------7\11----|----------------------| 

G-------------------|-----------------|-----------------------| 
D------5--4--2------|------5--4-------|------7--6-------------| 
A-0-0---------------|------------7----|------------9--------9-| 
E---------------2-3-|-5-5-----------5\|-7-7-----------7\11----| 

G------5--4------------|------ -----------| 
D------------7-------7-|-2-3-4-5--3-4-5-6-| 
A-5-5-----------5\9----|------------------| 
E----------------------|------------------| 

Stay with me 
G-----------------------|-------------------------|------7-----7-7---------| 
D-7-7--7-7--------------|----9-----9-9-9----------|----------------------7-| 
A-----------9-7-------7-|-----------------------9-|-5-5-----5-------5\9----| 
E----------------5-9----|-7-----7---------7/11----|------------------------| 

G--------------------------|---------------------|-------------------------| 
D-2--3--4--5--3-3--4--5--6-|-7--7-7--7-7---------|------9-----9-9----------| 
A--------------------------|-------------------7-|-----------------------9-| 
E--------------------------|--------------5\9----|-7-7-----7-------7\11----| 

                                              What’s your name again? 
G------7----7-7----------|----------------------|-------------------------| 
D----------------------7-|-----------7-7--------|------7------------------| 
A-5-5-----5-------5\9----|-0-7--7-9-------9-7-9-|---------7\(9)\12--10--9-| 
E------------------------|----------------------|-5-5---------------------| 

G-----------------------|------5--4------------|---------------------| 
D------7--6-------------|------------7-------7-|------5--4-----------| 
A------------9--------9-|-5-5-----------5\9----|-0-0---------4--5--6-| 
E-7-7-----------7\11----|----------------------|---------------------| 

ENDING 

G-----------------------------------|-----------------------------| 
D-------------------9--9-9--9-10-11-|-----------------7--7-7--7-9-| 
A-7--7--7-7--7\11-------------------|-5--5-5--5--5\9--------------| 
E-----------------------------------|-----------------------------| 

G--------------------------------|-------------------------------| 
D----7-------7-------------------|----7-------7------------------| 
A-0-----7-9-----10--10-10--9-9-7-|-0-----7-9-----10--10-10--5--6-| 
E--------------------------------|-------------------------------| 

G-----------9---------------9---------|----------------|-----------------------| 
D------6-7-----7-6-----6-7-----7-6----|----------7-8-9-|-7-7--5----------------| 
A-7-7---------------7---------------7-|-5--7--9--------|---------7-7-5-5--3--0-| 
E-------------------------------------|----------------|-----------------------| 

G-----------------------|---------------------------|---------------------------| 
D-7-7--5----------------|---------------------------|---------------------------| 
A---------7-7-5-5--3--0-|-7--7--7-7--7--7-7--7--7-7-|-5--5--5-5--5--5-5--5--5-5-| 
E-----------------------|---------------------------|---------------------------| 

G-r-|-------------------------|--------------------------|--r---------------| 
D-e-|-------------------11--9-|---------------9--9-9-7-5-|--e--------7------| 
A-s-|-7--7--7-7--7-7-7--------|-5--5--5-5--5-------------|--s--5--7-----5-6-| 
E-t-|-------------------------|--------------------------|--t---------------| 

G-------------------------|--------------------------|--r--|------| 
D-------------------11--9-|---------------9--9-9-7-5-|--e--|------| 
A-7--7--7-7--7-7-7--------|-5--5--5-5--5-------------|--s--|--5-6-| 
E-------------------------|--------------------------|--t--|------| 
  

G------------------9---------------|------7-------------7--------| 
D-------------------------9--------|-----------------------------| 
A-7--7-7--7--7\11-----11-----7-9-7-|-5\9-----5-7-5-7-9-----9-7-5-| 
E----------------------------------|-----------------------------| 
  

G----------------------|----------------------------| 
D-7-7--5-----7-7--5----|----7-------7---------------| 
A---------5----------5-|-0-----7-9-----10--10--9--5-| 
E----------------------|----------------------------| 

G---------------------------|---------------------------|-------------------------| 
D---------------------------|---------------------------|-10--9--8--7-------------| 
A-7--7--7-7--7--7-7--7--7-7-|-5--5--5-5--5--5-5--5--5-5-|-------------------------| 
E---------------------------|---------------------------|--------------8--7--6--5-| 

THAT WAS WAY TO MUCH EFFORT 
XX1134XX





Comments


Popular Faces tabs & chords
Debris 1 Chords
Nobody Knows Chords
Oh La La Chords
Ooh La La Chords
Richmond 1 Chords
Sweet Lady Mary Chords
(I Know) I'm Losing You Tabs
Sweet Little Rock N Roller Tabs
Nobody Knows Ukulele
Oh La La Ukulele


Song lyrics



↑ Back to top | Tablatures and chords are parodies/interpretations of the original songs. You may use it for private study, scholarship, research or language learning purposes only
© 2014 AZChords.com Contact us | Privacy policy | DMCA | Add/correct tabs | Request tabs | Top 50 tabs