>
 >
Via Del Campo

Via Del Campo Chords

Fabrizio De Andre - Via Del Campo chords, tabs, tablatures, lyrics

Guitar lessons | Add/correct | Request | Top 50 tabs Artists:  A B C D E F G H I J K L M N O P Q R S T U V W X Y Z 0-9

Via Del Campo Chords – Fabrizio De Andre

CD, Sheet music, Poster

Do you like Via Del Campo? Share with your friends now
ChordsChords v2Ukulele
CAPO: 1 (F)


INTRO:
         Am      E7        C         F         Am      E7
e|-------------|---------|---------|---------|-------|-------| 
B|-------------|---------|---------|---------|-------|-------| 
G|---1-1/2-1-2-|-2/4-2-4-|-4/6-4-6-|-6/7-6-4-|-2-1---|-------|  
D|-4-----------|---------|---------|---------|-----4-|-3-1-3-|    Am    E7
A|-------------|---------|---------|---------|-------|-------| 
E|-------------|---------|---------|---------|-------|-------| 


         Am         E7     Am                    
Via del Campo c' una graziosa
           C        F      G
gli occhi grandi color di foglia
       C         F     C    Am
tutta notte sta sulla soglia
         Dm        E7    Am
vende a tutti la stessa rosa


REEF:
         
e|-----------------| 
B|-2-3--2----2-32-|    Am
G|--------2--------| 


   Am         E7    Am
Via del Campo c' una bambina,
        C        F      G
con le labbra color rugiada,
            C      F       C  Am
gli occhi grigi come la strada
         Dm     E7    Am
nascon fiori dove cammina.


REEF:
         
e|-----------------| 
B|-2-3--2----2-32-|    Cm
G|--------2--------| 


        Cm          G7    Cm
Via del Campo c' una puttana
            Eb      Ab     Bb
gli occhi grandi color di foglia
       Eb         Ab    Eb    Cm
se di amarla ti vien la voglia
        Fm       G7    Cm
basta prenderla per la mano




      Cm          G7      Cm
E ti sembra di andare lontano
         Eb       Ab     Bb
lei ti guarda con un sorriso
        Eb          Ab  Eb Cm
non credevi che il paradiso
       Fm          G7    Cm
fosse solo l al primo piano


INSTRUMENTAL: Cm    G7    Cm
              Eb    Ab    Bb
              Eb    Ab    Eb    Cm
              Fm    G7    Cm


         Am       E7      Am
Via del Campo ci va un illuso
      C        F   G
a pregarla di maritare
     C       F       C  Am
a vederla salir le scale
         Dm          E7       Am
fino a quando il balcone  chiuso


       Am       E7     Am
Ama e ridi se amor risponde
        C        F      G
piangi forte se non ti sente
        C         F      C   Am
dai diamanti non nasce niente
       Dm   E7        Am
dal letame nascono i fior
        C         F      C   Am
dai diamanti non nasce niente
       Dm   E7        Am
dal letame nascono i fior.


OUTRO:
         Am      E7        C         F         Am      E7
e|-------------|---------|---------|---------|-------|-------| 
B|-------------|---------|---------|---------|-------|-------| 
G|---1-1/2-1-2-|-2/4-2-4-|-4/6-4-6-|-6/9-7-4-|-2-1---|-------|  
D|-4-----------|---------|---------|---------|-----4-|-3-1-3-|    Am    
A|-------------|---------|---------|---------|-------|-------| 
E|-------------|---------|---------|---------|-------|-------| 





Comments


Popular Fabrizio De Andre tabs & chords
Il Re Fa Rullare I Tamburi Chords
Il Suonatore Jones Chords
La Collina Chords
Princesa Chords
Quello Che Non Ho Chords
Via Della Croce Chords
Tre Madri Tabs
Bocca Di Rosa Ukulele
Il Re Fa Rullare I Tamburi Ukulele
La Ballata Del Mich Ukulele


Song lyrics



↑ Back to top | Tablatures and chords are parodies/interpretations of the original songs. You may use it for private study, scholarship, research or language learning purposes only
© 2014 AZChords.com Contact us | Privacy policy | DMCA | Add/correct tabs | Request tabs | Top 50 tabs