>
 >
G-get Up And Dance

G-get Up And Dance Guitar Tabs

Faber Drive - G-get Up And Dance chords, tabs, tablatures, lyrics

Guitar lessons | Add/correct | Request | Top 50 tabs Artists:  A B C D E F G H I J K L M N O P Q R S T U V W X Y Z 0-9

G-get Up And Dance Guitar Tabs – Faber Drive

CD, Sheet music, Poster

Do you like G-get Up And Dance? Share with your friends now
ChordsTabsUkulele
'Kay, so I know this is the KEYBOARD part, BUT... felt like it'd sound SO MUCH 
SICKER as a guitar part. SO here's the MELODY. RYTHM comin' right up, ina bit.

Intro:

e|--7-p5----|
B|-------7--|
G|----------|  X4
D|----------| 
A|----------|
E|----------|


Chorus:
                                                
e|--7-p5----|    |--10-p9-----|    |--7-p5----|        |
B|-------7--|    |--------10--|    |------7---|        |
G|----------| X4 |------------| X2 |----------| X2     | chorus X3
D|----------|    |------------|    |----------|        |
A|----------|    |------------|    |----------|        |
E|----------|    |------------|    |----------|        |
                                                

Pre-Verse:

e|-------------------|
B|--7-7-7-7-7-7-7-7--|
G|-------------------|
D|-------------------|
A|-------------------|
E|-------------------|

Verse:

e|----------------------------------------------------------|
B|--7-7-7-7-7-7-7-7-8-8-8-8-8-8-8-8-10-10-10-10-10-10-10-10-|
G|----------------------------------------------------------|
D|----------------------------------------------------------|
A|----------------------------------------------------------|
E|----------------------------------------------------------|
                                                               
e|-9-9-9-9-10-10-10-10--|                                       X2
B|----------------------|    
G|----------------------|     
D|----------------------|    
A|----------------------|    
E|----------------------|    


Pre-Chorus:

e|-----------------------------|
B|--7-7-7-7-7-7-7-7-8-8-8-8-8--|
G|-----------------------------|
D|-----------------------------|
A|-----------------------------|
E|-----------------------------|

Chorus     X2


Pre-Verse (Post-Chorus):

      x x x x x x x   x x x x x x x
e|-----------------------------------|
B|--7-7-7-7-7-7-7-7---7-7-7-7-7-7-7--|
G|-----------------------------------|
D|-----------------------------------|
A|-----------------------------------|
E|-----------------------------------|

Verse      X2

Pre-Chorus

Chorus     X2


Bridge pt. 1:

e|--7-7-7-7-7-7-7-7-10-10-10-10-10-10-10-10-|
B|------------------------------------------|
G|------------------------------------------|
D|------------------------------------------|
A|------------------------------------------|
E|------------------------------------------|
                                                   x2
e|------------------------------------------|
B|-7-7-7-7-7-7-7-7-10-10-10-10-10-10-10-10--|
G|------------------------------------------|
D|------------------------------------------|
A|------------------------------------------|
E|------------------------------------------|

Pre-Bridge pt. 2 (lol):

e|--7-7-7-7-7-7-7-7-10-10-10-10-10-10-10-10--|
B|-------------------------------------------|
G|-------------------------------------------|
D|-------------------------------------------|
A|-------------------------------------------|
E|-------------------------------------------|


Bridge pt. 2:

e|-----------------------------------------------------------|
B|--7-777-777-777-7-8-8-888-8-8-8-10-101010-101010-101010-10-|
G|-----------------------------------------------------------|
D|-----------------------------------------------------------|
A|-----------------------------------------------------------|
E|-----------------------------------------------------------|
                                                                 X2
e|-9-9-99-10-10-10-10--|
B|---------------------|
G|---------------------|
D|---------------------|
A|---------------------|
E|---------------------|

Some random part before chorus hehe:

e|-----------------------|
B|--7-777-777-777-777-7--|
G|-----------------------|
D|-----------------------|
A|-----------------------|
E|-----------------------|


Chorus X4

Verse


END


x = muted
p = pull off


So ya thas pretty much it. Um.... if there's anything wrong, juss lemme know, ill 
edit it. thnks. Rate please nd thnk u :)





Comments


Popular Faber Drive tabs & chords
Give Him Up Bass Tabs
It Ends Chords
Killin' Me Chords
Tongue Tied Chords
By Your Side 1 Tabs
Our Last Goodbye Intro Tabs
24 Story Love Affair Ukulele
Killing Me Ukulele
Tongue Tide Ukulele
Tounge Tied Ukulele


Song lyrics



↑ Back to top | Tablatures and chords are parodies/interpretations of the original songs. You may use it for private study, scholarship, research or language learning purposes only
© 2014 AZChords.com Contact us | Privacy policy | DMCA | Add/correct tabs | Request tabs | Top 50 tabs