» » »

Eyehategod, Story Of The Eye Tabs (ver.2)

Artists:  A B C D E F G H I J K L M N O P Q R S T U V W X Y Z # 

Story Of The Eye Tabs (ver.2)

Eyehategod Tabs
Rating:
0/5 (0 votes)
Story Of The Eye lessons Tabs too difficult? Try these video lessons and learn fast
                Label: Century Media Records

For questions or whatever, just leave a comment.

Unregistered user "Pez" has already made a decent tab of this song,
but after playing it as he tabbed it, it didn't really sound right;
maybe 'cause it's a different version? I don't know..
after messing with it, I figured it's in Drop D, and I went from there.
So here's my version!

Two guitars are being played.
Both play the same riffs, except where noted otherwise.

. = palm mute
~ = vibrato

Dropped D Tuning

==========
INTRO: (after feedback)
   Guitar 1
e|--------------------|---------------------------|
B|--------------------|---------------------------|
G|--------------------|---------------------------|
D|-7--9---------------|-7--9----------------------|
A|-7--9---------------|-7--9----------------------|
D|-7--9---2-4-2-4~~~~-|-7--9---2-4-2-4--4-7--6--5-|
   Guitar 2
e|--------------------|---------------------------|
B|--------------------|---------------------------|
G|--------------------|---------------------------|
D|-7--9---------------|-7--9----------------------|
A|-7--9---------------|-7--9----------------------|
D|-7--9---------------|-7--9----------------------|


VERSE 1:
e|--------------------|---------------------------|
B|--------------------|---------------------------|
G|--------------------|---------------------------|
D|--------------------|---------------------------|
A|--------------------|---------------------------| x2
D|-7--9---2-4-2-4~~~--|-7--9---2-4-2-4--4-7--6--5-|


CHORUS 1:
e|---------------------------|
B|---------------------------|
G|---------------------------|
D|-7--9---2-4-2-4--4-7--6--5-|
A|-7--9---2-4-2-4--4-7--6--5-| x4
D|-7--9---2-4-2-4--4-7--6--5-|


Repeat VERSE 1 & CHORUS 1, then:


VERSE 2:
e|------------------------------------|           |--------|
B|------------------------------------|           |--------|
G|------------------------------------|           |--------|
D|-3-3-3-0----------------------------|           |-3-3-3--|
A|-3-3-3-0----------------------------| x4, then: |-3-3-3--|
D|-3-3-3-0---11--10--9--5---5-9--8--7-|           |-3-3-3--|
   . . .                                            . . .


CHORUS 2:
e|---------------------------|-----------------------------|
B|---------------------------|-----------------------------|
G|---------------------------|-----------------------------|
D|-7--6--0-000---3--2--0-000-|-7--6--0-0-0-0-5-5-5-5-5-5-5-|
A|-7--6--0-000---3--2--0-000-|-7--6--0-0-0-0-5-5-5-5-5-5-5-|
D|-7--6--0-000---3--2--0-000-|-7--6--0-0-0-0-5-5-5-5-5-5-5-|
         . ...         . ...         . . . . . . . . . . .

e|---------------------------|-------------------------------|
B|---------------------------|-------------------------------|
G|---------------------------|-------------------------------|
D|-7--6--0-000---3--2--0-0-0-|-7--6--0-0-0-0-5-5-5-5-5-5-5-5-|
A|-7--6--0-000---3--2--0-0-0-|-7--6--0-0-0-0-5-5-5-5-5-5-5-5-|
D|-7--6--0-000---3--2--0-0-0-|-7--6--0-0-0-0-5-5-5-5-5-5-5-5-|
         . ...         . . .         . . . . . . . . . . . .

   Guitar 1
e|---------------------|
B|---------------------|
G|---------------------|
D|--------0------------|
A|--------0--let ring--|
D|-3-3-3--0------------|
 | Guitar 2
e|---------------------|
B|---------------------|
G|---------------------|
D|--------0------------|
A|--------0--let ring--|
D|--------0------------|


Repeat VERSE 2 (w/out first 4 chords the 1st time) & CHORUS 2

THE END!
            

comments powered by Disqus
↑ Back to top | Eyehategod Tabs for Story Of The Eye. Lyrics for acoustic guitar and electric guitar. Tablatures and chords are parodies/interpretations of the original songs. You may use it for private study, scholarship, research or language learning purposes only