» » »

Exploited, Fuck The Usa Tabs (ver.3)

Artists:  A B C D E F G H I J K L M N O P Q R S T U V W X Y Z # 

Fuck The Usa Tabs (ver.3)

Exploited Tabs
 Rating:
4/5 (5 votes)
Fuck The Usa lessons Tabs too difficult? Try these video lessons and learn fast
1
                The Exploited.
f**k The U.S.A

 Intro:
|----------------------------------|
|----------------------------------|
|-3-3--6-6--5-5--8-8--3-3--6-6--5~-|    x2
|-3-3--6-6--5-5--8-8--3-3--6-6--5~-|
|-1-1--4-4--3-3--6-6--1-1--4-4--3~-|
|----------------------------------|


 Verse:
|-----------------------------------------|
|-----------------------------------------|
|-3-333333--6-666666--5-555555------------|
|-3-333333--6-666666--5-555555--6-666666--|
|-1-111111--4-444444--3-333333--6-666666--|
|-------------------------------4-444444--|
   
                                      
 Chorus:
|------------------------------------------------------------------------|
|------------------------------------------------------------------------|
|-3-333333--10-101010101010--6-666666--5-6-5---On-the-last-chorus-of---3~|
|-3-333333--10-101010101010--6-666666--5-6-5----the-song-end on:-------3~|
|-1-111111--8--8-8-8-8-8-8---4-444444--3-4-3---------------------------1~|
|------------------------------------------------------------------------|


I haven't worked out the solo but that is otherwise the whole song.
The backing behind the solo is the verse riff and thats about it really.
:Mosh101:
            
Submit corrections

comments powered by Disqus
↑ Back to top | Exploited Tabs for Fuck The Usa. Lyrics for acoustic guitar and electric guitar. 1 Tablatures and chords are parodies/interpretations of the original songs. You may use it for private study, scholarship, research or language learning purposes only