» » »

All I Have To Do Is Dream Bass tabs (ver.1)

Artists:  A B C D E F G H I J K L M N O P Q R S T U V W X Y Z # 

All I Have To Do Is Dream Bass tabs (ver.1)

Everly Brothers
Rating:
0/5 (0 votes)

Hard to play? Try these video lessons and learn fast.
                All I have to do is dream

If stay with the chords (which I've included) and work out the timing of the fills then 
aren't any difficuties and it sounds great.

Verse
   E       C#m    A  B7
G: |---------------------------|
D: |---------------------------|
A: |-7--7-6-4--4---------------|
E: |-------------7-5--7--7-7-7-|

Until

Prechorus

All I have to do is Dre.........am

                      E      A       E    Bm7-E7
                  G: |--------------|-------------|
                  D: |--------------|-------------|
                  A: |-------0-0----|-7-7-6-6-4---|
                  E: |-0-0-0------0-|-----------7-|

Chorus
    A          G#m       F#m       E   E7
G: |--------------------|------------------------------|
D: |--------------------|------------------------------|
A: |--------------------|-----2--2-7---7-7-6-6-4-------|
E: |-5--5-5----4--4-4---|2--2--------------------7-----|
    A          G#m       F#m         B---A-------------|G#m-F#m
G: |--------------------|------------------------------|
D: |--------------------|------------------------------|
A: |--------------------|--4-7---4-7-------------------|
E: |-5--5-5----4--4-4--4|5-----5-----7-7-5-5-4-4-2-2---|

Then verse again until

Prechorus (starts on the third "dream")

   Dre..........am
    E      A       E    Bm7-E7
G: |--------------|-------------|
D: |--------------|-------------|
A: |-------0-0----|-7-7-6-6-4---|
E: |-0-0-0------0-|-----------7-|

Chorus

Then for the outro just play the verse again until fade out.
            
Hard to play? Try these video lessons and learn fast. | Correct




comments powered by Disqus
↑ Back to top | Tablatures and chords are parodies/interpretations of the original songs. You may use it for private study, scholarship, research or language learning purposes only