» » »

All I Have To Do Is Dream Tabs (ver.1)

Artists:  A B C D E F G H I J K L M N O P Q R S T U V W X Y Z # 

All I Have To Do Is Dream Tabs (ver.1)

Everly Brothers
Rating:
0/5 (0 votes)

Hard to play? Try these video lessons and learn fast.
                --0-------------------------------5--------5-------3----------------|
--1---3---3------------------1----5--------5-------3----------6-----|
--0---0---0---0---2-------2-------5------------5---4------4---------|
------2---2-------2----2--------------7----------------3------------|
--3---------------0---------------8---------------------------------|
---------------------------------------------------3----------------|

--------------------------------------5--------5-------3-------------|
--1----3----1--------------------1----5--------5-------3----------6--|
--0----0----0----0----2-------2-------5----5-------5---4------4------|
-------2----2----2----2----2-------------------------------3---------|
--3-------------------0---------------8------------------------------|
-------------------------------------------------------3-------------|

-----------1--------0--------------------1---1---1---3--------------|
---1-------0--------1-----------1--------1---1---1---3---------6----|
---0---0--------0---2-------2------------2---2---2---4------4-------|
-------------------------2-------------------------------3----------|
---3----------------0-----------------------------------------------|
-------------------------------------1---------------3--------------|


-----------1--------0--------------------1---1---1---3--------------|
---1-------0--------1-----------1--------1---1---1---3---------6----|
---0---0--------0---2-------2------------2---2---2---4------4-------|
-------------------------2-------------------------------3----------|
---3----------------0-----------------------------------------------|
-------------------------------------1---------------3--------------|

---------------------5-----------------------------------------------|
---5----4---5--------5--------5---------1---1---1---1---3---------3--|
---4-----------------5------------7-----2---2---2---2---0------0-----|
---5----------------------7-------------3---3---3---3-------0--------|
---3------------5----0-----------------------------------------------|
----------------------------------------1---------------3------------|


--------------------------------------5--------5-------3-------------|
--1----3----1--------------------1----5--------5-------3----------6--|
--0----0----0----0----2-------2-------5----5-------5---4------4------|
-------2----2----2----2----2-------------------------------3---------|
--3-------------------0---------------8------------------------------|
-------------------------------------------------------3-------------|


-----------1--------0--------------------1---1---1---3--------------|
---1-------0--------1-----------1--------1---1---1---3---------6----|
---0---0--------0---2-------2------------2---2---2---4------4-------|
-------------------------2-------------------------------3----------|
---3----------------0-----------------------------------------------|
-------------------------------------1---------------3--------------|


-----------1--------0--------------------1---1---1---3--------------|
---1-------0--------1-----------1--------1---1---1---3---------6----|
---0---0--------0---2-------2------------2---2---2---4------4-------|
-------------------------2-------------------------------3----------|
---3----------------0-----------------------------------------------|
-------------------------------------1---------------3--------------|



---------------------5-----------------------------------------------|
---5----4---5--------5--------5---------1---1---1---1---3---------3--|
---4-----------------5------------7-----2---2---2---2---0------0-----|
---5----------------------7-------------3---3---3---3-------0--------|
---3------------5----0-----------------------------------------------|
----------------------------------------1---------------3------------|

---------------------------------------------------------------------|
---1----3---1----------------1---3-----1--------------------------1--|
---0----0--------0----2------2---2------------0---------------3------|
--------------------------3----------------2------2-------2----------|
---3-----------------------------------3--------------3--------------|
----------------------1----------------------------------------------|

----5---5----5---5---5-------------5-----------------------------------|
----5---5----5-------5------------------8---8---8---8---8----------8---|
----5---5----5---5-----------5----------7---7---7---7---7------7-------|
--------------------------7-------------9---9---9---9---9---9----------|
----8----------------8-------------------------------------------------|
----------------------------------------0---------------0--------------|

----------------------------3---------0------------------------------5-|
---6---6---6---6---6--------6---6-----1----------1--------------1----5-|
---5---5---5---5---4------------------0-------0------3------3--------5-|
---7---7---7---7---3----3------------------2-------------2-------------|
---5----------------------------------3--------------3-----------------|
-------------------3---------------------------------------------------|

---------5----5---5---5----------------------7-----------------------5-|
---------5----5---5---5---------5------------8---10---8----------8---7-|
---------5----5---5---5------5-------------------7----7------7---------|
--------------------------7--------------9----------------9------------|
----8-----------------8------------------------------------------------|
-------------------------------------0----------------0----------------|

--------5----5---5-----------2------5------------3------------------|
--------7----7---8-----8------3-----3---------3----------------6----|
---5----5----5---5-------------2----4------4------------------------|
----------------------------------------3-----------------3---------|
---5----------------------------------------------------------------|
-----------------0-----------2------3-----------------3-------------|


-----------1--------0--------------------1---1---1---3--------------|
---1-------0--------1-----------1--------1---1---1---3---------6----|
---0---0--------0---2-------2------------2---2---2---4------4-------|
-------------------------2-------------------------------3----------|
---3----------------0-----------------------------------------------|
-------------------------------------1---------------3--------------|


-----------1--------0--------------------1---1---1---3--------------|
---1-------0--------1-----------1--------1---1---1---3---------6----|
---0---0--------0---2-------2------------2---2---2---4------4-------|
-------------------------2-------------------------------3----------|
---3----------------0-----------------------------------------------|
-------------------------------------1---------------3--------------|



---------------------5-----------------------------------------------|
---5----4---5--------5--------5---------1---1---1---1---3---------3--|
---4-----------------5------------7-----2---2---2---2---0------0-----|
---5----------------------7-------------3---3---3---3-------0--------|
---3------------5----0-----------------------------------------------|
----------------------------------------1---------------3------------|



--------------------------------------5--------5-------3-------------|
--1----3----1--------------------1----5--------5-------3----------6--|
--0----0----0----0----2-------2-------5----5-------5---4------4------|
-------2----2----2----2----2-------------------------------3---------|
--3-------------------0---------------8------------------------------|
-------------------------------------------------------3-------------|


--------------------------------------5--------5-------3-------------|
--1----3----1--------------------1----5--------5-------3----------6--|
--0----0----0----0----2-------2-------5----5-------5---4------4------|
-------2----2----2----2----2-------------------------------3---------|
--3-------------------0---------------8------------------------------|
-------------------------------------------------------3-------------|

-----------0---------x-|
-----------0---------x-|
--------0------------x-|
---------------------x-|
----3----------------x-|
---------------------x-|
            
Hard to play? Try these video lessons and learn fast. | Correct




comments powered by Disqus
↑ Back to top | Tablatures and chords are parodies/interpretations of the original songs. You may use it for private study, scholarship, research or language learning purposes only