» » »

Untitled Tabs (ver.1)

Artists:  A B C D E F G H I J K L M N O P Q R S T U V W X Y Z # 

Untitled Tabs (ver.1)

Evergreen Terrace
Rating:
3/5 (1 vote)

Hard to play? Try these video lessons and learn fast.
                
Tuning: In my opinion Drop D but other guitarists prefer Drop C# so I guess its personal opinion

This tab is NOT 100% accurate I made this so people can stop struggling to find a basic
of this amazing song. I’m sure if you’re a talented guitarist you’ll be able to use this
and end up with the accurate one. Also I only have one guitar tabbed. You should be able 
figure out the strumming yourselves the amount shown is just a guide.


Intro & Chorus x2  (last three chords are only played on intro 1st time)
e|---------------------------------------------------------------------------|
B|---------------------------------------------------------------------------|
G|----99999-------------44444------------6666666-222222-020------------------|
D|--7-77777-----------2-22222-----2----4-4444444-000000-020------------------|
A|--7-77777-----7-----2-22222-2h4---4--4-4444444-000000-020------------------|
E|--7-77777—7h9---9---2-22222----------4-4444444-000000-020------------------|

Verse x2
e|----------------------------------000--------------------------------------|
B|----------------------------------000--------------------------------------|
G|--9999999-4444444-6666666-2222222-222--------------------------------------|
D|--7777777-2222222-4444444-0000000-000--------------------------------------|
A|--7777777-2222222-4444444-0000000-000--------------------------------------|
E|--7777777-2222222-4444444-0000000-000--------------------------------------|


Bridge x4
e|--------------------------------------------------------------------------|
B|--------------------------------------------------------------------------|
G|-666666-444444------------------------------------------------------------|
D|-444444-222222------------------------------------------------------------|
A|-444444-222222------------------------------------------------------------|
E|-444444-222222------------------------------------------------------------|

Last Chorus (Not sure about last chord)
e|----------------------------------------------------------------2----------|
B|----------------------------------------------------------------0----------|
G|------------------------6-4-2-------------------------------6-4-2----------|
D|-7-----------2-----2----4-2-0--------7-----------2-----2----4-2-0----------|
A|-7-----7-----2-2h4---4--4-2-0--7-7-7-7-----7-----2-2h4---4--4-2-0----------|
E|-7-7h9----9--2—---------4-2-0--7-7-7-7-7h9----9--2----------4-2-0----------|

| h   hammer-on
            
Hard to play? Try these video lessons and learn fast. | Correct




comments powered by Disqus
↑ Back to top | Tablatures and chords are parodies/interpretations of the original songs. You may use it for private study, scholarship, research or language learning purposes only