» » »

Evergreen Terrace, New Friend Request Tabs (ver.3)

Artists:  A B C D E F G H I J K L M N O P Q R S T U V W X Y Z # 

New Friend Request Tabs (ver.3)

Evergreen Terrace Tabs
 Rating:
4/5 (4 votes)
New Friend Request lessons Tabs too difficult? Try these video lessons and learn fast
                    here is how i play it...might help some of you
        (0:00-0:09)
 D|----------------------------------|
 A|----------------------------------|
 F|----------------------------------|
 C|-1-------3-4-444-4-6-666---1------|
 G|-1-111---1-2-222-4-6-666-6-1-111--|
 C|-1-111-----------4-6-666-6-1-111--|
      ***       ***     ***     ***
        (0:09-0:18)
 D|----------------------|
 A|----------------------|
 F|-4-6-8~8-10-11--------|
 C|-x-x-x~x-x--x---------|
 G|-2-4-6~6-8--9---------|
 C|----------------------|
        (0:19-0:27)
 D|----------------------------------|
 A|----------------------------------|
 F|----------------------------------|
 C|-1-111---3-4-444-4-6-666---1-111--|
 G|-1-111---1-2-222-4-6-666-6-1-111--|
 C|-1-111-----------4-6-666-6-1-111--|
     (0:28-0:36)       (0:36-0:56)
 D|------------|----------------------------------------|
 A|------------|----------------------------------------|
 F|-4-6-8-10-11|----------------------------------------|
 C|-x-x-x-x--x-|-----------1-------------------3h4----1-|
 G|-2-4-6-8--9-|-----------1----3h6---3h6---3h6---3h6-1-|
 C|------------|-6-4-0-4-6-1-111---111---111----------1-|
                             ***   ***   ***
     (0:57-1:06)
 D|---------------------------------|---|
 A|---------------------------------|---|
 F|-8-88/101010/111111/13-111111/13-|15-|
 C|-x-xx/x-x-x-/x-x-x-/x--x-x-x-/x--|x--|
 G|-6-66/8-8-8-/9-9-9-/11-9-9-9-/11-|13-|
 C|---------------------------------|---|
 Simple...
            
Submit corrections

comments powered by Disqus
↑ Back to top | Evergreen Terrace Tabs for New Friend Request. Lyrics for acoustic guitar and electric guitar. Tablatures and chords are parodies/interpretations of the original songs. You may use it for private study, scholarship, research or language learning purposes only