» » »

Europe, Final Countdown Tabs (ver.3)

Artists:  A B C D E F G H I J K L M N O P Q R S T U V W X Y Z # 

Final Countdown Tabs (ver.3)

Europe Tabs
 Rating:
4/5 (4 votes)
Final Countdown lessons Tabs too difficult? Try these video lessons and learn fast
1
                (Solo)
PROPS GO TO: S. Froyn

Final Countdown by Europe
+++++++++++++++++++++++++++++++

   3:16                                      3:18
e|--10h14r10--10h14r10--10h14r10--10h14r10-----12h15r12--12h15r12--12h15r12--12h15r12------|
h|12--------12--------12--------12-----------14--------14--------14--------14--------------|
g|-----------------------------------------------------------------------------------------|
D|-----------------------------------------------------------------------------------------|
A|-----------------------------------------------------------------------------------------|
E|-----------------------------------------------------------------------------------------|

  3:20                                       3:22
e|--14h17r14--14h17r14--14h17r14--14h17r14-------------------------------------------------|
h|15--------15--------15--------15-------------12h15r12---12h15r12-------------------------|
g|-------------------------------------------12---------12---------------------------------|
D|-----------------------------------------------------------------------------------------|
A|-----------------------------------------------------------------------------------------|
E|-----------------------------------------------------------------------------------------|

  3:23                               3:25
e|-----------------------------------------------------------------------------------------|
h|-------12--------------------------------------------------------------------------------|
g|-12-14----14-12-11-12-11------------12-12-12-11r12h11------------------------------------|
D|-------------------------14-12-14---------------------14-12-12-11------------------------|
A|------------------------------------------------------------------14-12------------------|
E|-----------------------------------------------------------------------------------------|

  3:28
e|-----------------------------------------------------------------------------------------|
h|-----------------------------------------------------------------------------------------|
g|-16b--16----14----16-14---14-------------------------------------------------------------|
D|---------16----16-------16--16-15--15-14---14---14-------14------------------------------|
A|-----------------------------------------17---17---14-17---------------------------------|
E|-----------------------------------------------------------------------------------------|


      3:33                                      3:35
e|--10h14r10--10h14r10--10h14r10--10h14r10-----12h15r12--12h15r12--12h15r12--12h15r12------|
h|12--------12--------12--------12-----------14--------14--------14--------14--------------|
g|-----------------------------------------------------------------------------------------|
D|-----------------------------------------------------------------------------------------|
A|-----------------------------------------------------------------------------------------|
E|-----------------------------------------------------------------------------------------|

      3:37                                       3:39
e|--14h17r14--14h17r14--14h17r14--14h17r14-------------------------------------------------|
h|15--------15--------15--------15-------------12h15r12---12h15r12-------------------------|
g|-------------------------------------------12---------12---------------------------------|
D|-----------------------------------------------------------------------------------------|
A|-----------------------------------------------------------------------------------------|
E|-----------------------------------------------------------------------------------------|


    3:40                               3:41                               3:44     3:46
e|-----------------------------------------------------------------------------------------|
h|--------12---------------------------------------------------12--------------------------|
g|--12-14----14-12-11-12-11------------12-12-12-11r12h11-----------14-------11----13h16r13-|
D|--------------------------14-12-14---------------------12-14--------12-14----------------|
A|-----------------------------------------------------------------------------------------|
E|-----------------------------------------------------------------------------------------|



Notation Legend:
h=hammer
r=release (pull off)
s=slide
b=bend
bs=bend and slide (duh!)
3:29= 3 minutes and 29 seconds into song (duh!)

Oslo September 22nd 2002
            
Submit corrections

comments powered by Disqus
↑ Back to top | Europe Tabs for Final Countdown. Lyrics for acoustic guitar and electric guitar. 1 Tablatures and chords are parodies/interpretations of the original songs. You may use it for private study, scholarship, research or language learning purposes only