» » »

Eternal Tears Of Sorrow, River Flows Frozen Tabs (ver.2)

Artists:  A B C D E F G H I J K L M N O P Q R S T U V W X Y Z # 

River Flows Frozen Tabs (ver.2)

Eternal Tears Of Sorrow Tabs
Rating:
3/5 (2 votes)
Hard to play? Try these video lessons and learn fast.
                (Intro)
-------------------------------------------------------------------------------
                             SONG NAME - Band Name
-------------------------------------------------------------------------------



e|------------0-----------7-------7----------8---------0-----0------0--0-----|
B|---------------0--------0----------0----------0------------0------------0--|
G|------------------5-----5----------------------------------0---------------|
D|--------7---------------7-------------7-----------7--------5---5-----------|
A|----0-------------------0--------------------------------------------------|
E|---------------------------------------------------------------------------|

e|-----------0------------------1------0-----------------------------3-------|
B|--------5-----5-------------1---1----1----1------0h1-----------------0-----|
G|-----4-----------4--------2----------2-------------------------------------|
D|------------------------3------------3-------3--------3-----2--------------|
A|-------------------------------------0----------------------2--------------|
E|(0)---------------------------------------------------------0--0--------0--|
Let Ring                      

                                   Repeat
e|--3---------5-------5--------3-|-------------------------------------------|
B|----0--------------------------|-------------------------------------------|
G|-------------------------------|-------------------------------------------|
D|-------------------------------|-------------------------------------------|
A|-------------------------------|-------------------------------------------|
E|-------0--------0-------0------|-------------------------------------------|


| /  slide up
| \  slide down
| h  hammer-on
| p  pull-off
| ~  vibrato
| +  harmonic
| x  Mute note
| () Let Ring
===============================================================================
            

comments powered by Disqus
↑ Back to top | Eternal Tears Of Sorrow Tabs for River Flows Frozen. Lyrics for acoustic guitar and electric guitar. Tablatures and chords are parodies/interpretations of the original songs. You may use it for private study, scholarship, research or language learning purposes only