» » »

Eric Clapton, Willie And The Hand Jive Tabs (ver.1)

Artists:  A B C D E F G H I J K L M N O P Q R S T U V W X Y Z # 

Willie And The Hand Jive Tabs (ver.1)

Eric Clapton Tabs
Rating:
0/5 (0 votes)
Willie And The Hand Jive lessons Tabs too difficult? Try these video lessons and learn fast
                As on the tv programme 'Eric Clapton And Guests'(Sky Arts)

Tuning: Regular (eADGBE)

Intro:

e|----3-/-5---5---5---X---5---X---X---5---5---|
B|----3-/-5---5---5---X---5---X---X---5---5---|
G|----4-/-6---6---6---X---6---X---X---6---6---|
D|----5-/-7---7---7---X---7---X---X---7---7---|
A|----5-/-7---7---7---X---7---X---X---7---7---|
E|----3-/-5---5---5---X---5---X---X---5---5---| x8

Verse:

e|----3-/-5---5---5---X---5---X---X---5---5---|
B|----3-/-5---5---5---X---5---X---X---5---5---|
G|----4-/-6---6---6---X---6---X---X---6---6---|
D|----5-/-7---7---7---X---7---X---X---7---7---|
A|----5-/-7---7---7---X---7---X---X---7---7---|
E|----3-/-5---5---5---X---5---X---X---5---5---| x4

e|----5-/-7---7---7---X---7---X---X---7---7---|
B|----7-/-9---9---9---X---9---X---X---9---9---|
G|----7-/-9---9---9---X---9---X---X---9---9---|
D|----7-/-9---9---9---X---9---X---X---9---9---|
A|----5-/-7---9---9---X---9---X---X---9---9---|
E|--------------------------------------------| x2

e|----3-/-5---5---5---X---5---X---X---5---5---|
B|----3-/-5---5---5---X---5---X---X---5---5---|
G|----4-/-6---6---6---X---6---X---X---6---6---|
D|----5-/-7---7---7---X---7---X---X---7---7---|
A|----5-/-7---7---7---X---7---X---X---7---7---|
E|----3-/-5---5---5---X---5---X---X---5---5---| x2

Bridge:

e|----3-/-5---5---5---X---5---X---X---5---5---|
B|----3-/-5---5---5---X---5---X---X---5---5---|
G|----4-/-6---6---6---X---6---X---X---6---6---|
D|----5-/-7---7---7---X---7---X---X---7---7---|
A|----5-/-7---7---7---X---7---X---X---7---7---|
E|----3-/-5---5---5---X---5---X---X---5---5---| x2

Verse:

e|----3-/-5---5---5---X---5---X---X---5---5---|
B|----3-/-5---5---5---X---5---X---X---5---5---|
G|----4-/-6---6---6---X---6---X---X---6---6---|
D|----5-/-7---7---7---X---7---X---X---7---7---|
A|----5-/-7---7---7---X---7---X---X---7---7---|
E|----3-/-5---5---5---X---5---X---X---5---5---| x4

e|----5-/-7---7---7---X---7---X---X---7---7---|
B|----7-/-9---9---9---X---9---X---X---9---9---|
G|----7-/-9---9---9---X---9---X---X---9---9---|
D|----7-/-9---9---9---X---9---X---X---9---9---|
A|----5-/-7---9---9---X---9---X---X---9---9---|
E|--------------------------------------------| x2

e|----3-/-5---5---5---X---5---X---X---5---5---|
B|----3-/-5---5---5---X---5---X---X---5---5---|
G|----4-/-6---6---6---X---6---X---X---6---6---|
D|----5-/-7---7---7---X---7---X---X---7---7---|
A|----5-/-7---7---7---X---7---X---X---7---7---|
E|----3-/-5---5---5---X---5---X---X---5---5---| x2

Chorus:

e|----5-/-7---7---7---X---7---X---X---7---7---|
B|----7-/-9---9---9---X---9---X---X---9---9---|
G|----7-/-9---9---9---X---9---X---X---9---9---|
D|----7-/-9---9---9---X---9---X---X---9---9---|
A|----5-/-7---9---9---X---9---X---X---9---9---|
E|--------------------------------------------| x1

e|----3-/-5---5---5---X---5---X---X---5---5---|
B|----3-/-5---5---5---X---5---X---X---5---5---|
G|----4-/-6---6---6---X---6---X---X---6---6---|
D|----5-/-7---7---7---X---7---X---X---7---7---|
A|----5-/-7---7---7---X---7---X---X---7---7---|
E|----3-/-5---5---5---X---5---X---X---5---5---| x1

e|----7-/---9----9-----X---9----X---X---------|
B|----9-/---11---11----X---11---X---X---------|
G|----9-/---11---11----X---11---X---X---------|
D|----9-/---11---11----X---11---X---X---------|
A|----7-/---9----9-----X---9----X---X---------|
E|--------------------------------------------| x1

e|----3-/-5---5---5---X---5---X---X---5---5---|
B|----3-/-5---5---5---X---5---X---X---5---5---|
G|----4-/-6---6---6---X---6---X---X---6---6---|
D|----5-/-7---7---7---X---7---X---X---7---7---|
A|----5-/-7---7---7---X---7---X---X---7---7---|
E|----3-/-5---5---5---X---5---X---X---5---5---| x1

Bridge:

e|----3-/-5---5---5---X---5---X---X---5---5---|
B|----3-/-5---5---5---X---5---X---X---5---5---|
G|----4-/-6---6---6---X---6---X---X---6---6---|
D|----5-/-7---7---7---X---7---X---X---7---7---|
A|----5-/-7---7---7---X---7---X---X---7---7---|
E|----3-/-5---5---5---X---5---X---X---5---5---| x3

Verse:

e|----3-/-5---5---5---X---5---X---X---5---5---|
B|----3-/-5---5---5---X---5---X---X---5---5---|
G|----4-/-6---6---6---X---6---X---X---6---6---|
D|----5-/-7---7---7---X---7---X---X---7---7---|
A|----5-/-7---7---7---X---7---X---X---7---7---|
E|----3-/-5---5---5---X---5---X---X---5---5---| x4

e|----5-/-7---7---7---X---7---X---X---7---7---|
B|----7-/-9---9---9---X---9---X---X---9---9---|
G|----7-/-9---9---9---X---9---X---X---9---9---|
D|----7-/-9---9---9---X---9---X---X---9---9---|
A|----5-/-7---9---9---X---9---X---X---9---9---|
E|--------------------------------------------| x2

e|----3-/-5---5---5---X---5---X---X---5---5---|
B|----3-/-5---5---5---X---5---X---X---5---5---|
G|----4-/-6---6---6---X---6---X---X---6---6---|
D|----5-/-7---7---7---X---7---X---X---7---7---|
A|----5-/-7---7---7---X---7---X---X---7---7---|
E|----3-/-5---5---5---X---5---X---X---5---5---| x2

Chorus:

e|----5-/-7---7---7---X---7---X---X---7---7---|
B|----7-/-9---9---9---X---9---X---X---9---9---|
G|----7-/-9---9---9---X---9---X---X---9---9---|
D|----7-/-9---9---9---X---9---X---X---9---9---|
A|----5-/-7---9---9---X---9---X---X---9---9---|
E|--------------------------------------------| x1

e|----3-/-5---5---5---X---5---X---X---5---5---|
B|----3-/-5---5---5---X---5---X---X---5---5---|
G|----4-/-6---6---6---X---6---X---X---6---6---|
D|----5-/-7---7---7---X---7---X---X---7---7---|
A|----5-/-7---7---7---X---7---X---X---7---7---|
E|----3-/-5---5---5---X---5---X---X---5---5---| x1

e|----7-/---9----9-----X---9----X---X---------|
B|----9-/---11---11----X---11---X---X---------|
G|----9-/---11---11----X---11---X---X---------|
D|----9-/---11---11----X---11---X---X---------|
A|----7-/---9----9-----X---9----X---X---------|
E|--------------------------------------------| x1

e|----3-/-5---5---5---X---5---X---X---5---5---|
B|----3-/-5---5---5---X---5---X---X---5---5---|
G|----4-/-6---6---6---X---6---X---X---6---6---|
D|----5-/-7---7---7---X---7---X---X---7---7---|
A|----5-/-7---7---7---X---7---X---X---7---7---|
E|----3-/-5---5---5---X---5---X---X---5---5---| x1

During Saxophone solo:

e|----3-/-5---5---5---X---5---X---X---5---5---|
B|----3-/-5---5---5---X---5---X---X---5---5---|
G|----4-/-6---6---6---X---6---X---X---6---6---|
D|----5-/-7---7---7---X---7---X---X---7---7---|
A|----5-/-7---7---7---X---7---X---X---7---7---|
E|----3-/-5---5---5---X---5---X---X---5---5---| x16

Verse:

e|----3-/-5---5---5---X---5---X---X---5---5---|
B|----3-/-5---5---5---X---5---X---X---5---5---|
G|----4-/-6---6---6---X---6---X---X---6---6---|
D|----5-/-7---7---7---X---7---X---X---7---7---|
A|----5-/-7---7---7---X---7---X---X---7---7---|
E|----3-/-5---5---5---X---5---X---X---5---5---| x4

e|----5-/-7---7---7---X---7---X---X---7---7---|
B|----7-/-9---9---9---X---9---X---X---9---9---|
G|----7-/-9---9---9---X---9---X---X---9---9---|
D|----7-/-9---9---9---X---9---X---X---9---9---|
A|----5-/-7---9---9---X---9---X---X---9---9---|
E|--------------------------------------------| x2

e|----3-/-5---5---5---X---5---X---X---5---5---|
B|----3-/-5---5---5---X---5---X---X---5---5---|
G|----4-/-6---6---6---X---6---X---X---6---6---|
D|----5-/-7---7---7---X---7---X---X---7---7---|
A|----5-/-7---7---7---X---7---X---X---7---7---|
E|----3-/-5---5---5---X---5---X---X---5---5---| x2

Chorus:

e|----5-/-7---7---7---X---7---X---X---7---7---|
B|----7-/-9---9---9---X---9---X---X---9---9---|
G|----7-/-9---9---9---X---9---X---X---9---9---|
D|----7-/-9---9---9---X---9---X---X---9---9---|
A|----5-/-7---9---9---X---9---X---X---9---9---|
E|--------------------------------------------| x1

e|----3-/-5---5---5---X---5---X---X---5---5---|
B|----3-/-5---5---5---X---5---X---X---5---5---|
G|----4-/-6---6---6---X---6---X---X---6---6---|
D|----5-/-7---7---7---X---7---X---X---7---7---|
A|----5-/-7---7---7---X---7---X---X---7---7---|
E|----3-/-5---5---5---X---5---X---X---5---5---| x1

e|----7-/---9----9-----X---9----X---X---------|
B|----9-/---11---11----X---11---X---X---------|
G|----9-/---11---11----X---11---X---X---------|
D|----9-/---11---11----X---11---X---X---------|
A|----7-/---9----9-----X---9----X---X---------|
E|--------------------------------------------| x1

e|----3-/-5---5---5---X---5---X---X---5---5---|
B|----3-/-5---5---5---X---5---X---X---5---5---|
G|----4-/-6---6---6---X---6---X---X---6---6---|
D|----5-/-7---7---7---X---7---X---X---7---7---|
A|----5-/-7---7---7---X---7---X---X---7---7---|
E|----3-/-5---5---5---X---5---X---X---5---5---| x1

Chorus(repeated):

e|----5-/-7---7---7---X---7---X---X---7---7---|
B|----7-/-9---9---9---X---9---X---X---9---9---|
G|----7-/-9---9---9---X---9---X---X---9---9---|
D|----7-/-9---9---9---X---9---X---X---9---9---|
A|----5-/-7---9---9---X---9---X---X---9---9---|
E|--------------------------------------------| x1

e|----3-/-5---5---5---X---5---X---X---5---5---|
B|----3-/-5---5---5---X---5---X---X---5---5---|
G|----4-/-6---6---6---X---6---X---X---6---6---|
D|----5-/-7---7---7---X---7---X---X---7---7---|
A|----5-/-7---7---7---X---7---X---X---7---7---|
E|----3-/-5---5---5---X---5---X---X---5---5---| x1

e|----7-/---9----9-----X---9----X---X---------|
B|----9-/---11---11----X---11---X---X---------|
G|----9-/---11---11----X---11---X---X---------|
D|----9-/---11---11----X---11---X---X---------|
A|----7-/---9----9-----X---9----X---X---------|
E|--------------------------------------------| x1

e|----3-/-5---5---5---X---5---X---X---5---5---|
B|----3-/-5---5---5---X---5---X---X---5---5---|
G|----4-/-6---6---6---X---6---X---X---6---6---|
D|----5-/-7---7---7---X---7---X---X---7---7---|
A|----5-/-7---7---7---X---7---X---X---7---7---|
E|----3-/-5---5---5---X---5---X---X---5---5---| x1

To End of Song:

e|----3-/-5---5---5---X---5---X---X---5---5---|
B|----3-/-5---5---5---X---5---X---X---5---5---|
G|----4-/-6---6---6---X---6---X---X---6---6---|
D|----5-/-7---7---7---X---7---X---X---7---7---|
A|----5-/-7---7---7---X---7---X---X---7---7---|
E|----3-/-5---5---5---X---5---X---X---5---5---| x8


LEGEND AND NOTES:
h: Hammer-on            p: Pull-off         b: Bend string up
r: Unbend string        /: Slide up         \: Slide down
: Harmonics       x: Muted string     v: Vibrato
t: Tap
            

comments powered by Disqus
↑ Back to top | Eric Clapton Tabs for Willie And The Hand Jive. Lyrics for acoustic guitar and electric guitar. Tablatures and chords are parodies/interpretations of the original songs. You may use it for private study, scholarship, research or language learning purposes only