>
 >
Tears In Heaven Easy Version

Tears In Heaven Easy Version Guitar Tabs

Eric Clapton - Tears In Heaven Easy Version chords, tabs, tablatures, lyrics

Guitar lessons | Add/correct | Request | Top 50 tabs Artists:  A B C D E F G H I J K L M N O P Q R S T U V W X Y Z 0-9

Tears In Heaven Easy Version Guitar Tabs – Eric Clapton

CD, Sheet music, Poster

Do you like Tears In Heaven Easy Version? Share with your friends now
Tabs
INTRO:

e|---------------------------------------------------------------------------
B|----------------------------2h3p2--------5--------------5---------2-----
G|-----------------------------------2-----4--------------4---------2-----
D|--------------------------------------------------------------------------- 
A|----------0---------------------------------------------------------------
E|-0--h2------------------------------------------4------------------------


-----------------2---------------2---------------2-------------------------- 
-----------------2---------------2---------------2--------------------------
---------2---------------2---------------0---------------0----------------- 


VERSE:

e|---------------------------------------------------------------------------
B|-------------2h3h2--------5---------5---2----------2---------2------2--
G|-------------------2------4---------4---2----------2---------2------2--
D|--------------------------------------------------------------------------- 
A|-------0------------------------------------------------------------------
E|-0h2---------------------------4---------------2---------2--------0---- 


-----------------(0)--------------------------------------------------------
-----3-------3-------2-------2--------0-------0------2-------3-----2----
-----2-------2-------2-------2--------1-------1------2-------4-----2----
--0------2--------2-------0-------0-------0------0-------0------0-------
  

---------2h3h2-------5-------5-----2--------2--------2--------2--------
----------------2----4-------4-----2--------2--------2--------2--------
--0-----------------------------------------------------------------------   
-------------------------4---------------2--------2-------0--------0----


------------------(0)--------------------------------------------------------
----3--------3---------2--------2---------0--------0-------2-------3-----
----2--------2---------2--------2---------1--------1-------2-------4-----
--------2---------2----------2--------2--------0-------0--------0--------


----2-------2-------2-------2-------1-------1-------1--------1---------
----2-------2-------2-------2-------2-------2-------2--------2--------- 
---------2-------2-------2-------2-------1-------1-------1-------1-----


---3-------3-------3-------3-----------3---3----(3)--------------------
---2-------2-------2-------2-----------2---2----(2)--------------------
-------2-------2-------2-------0--2--------------------------0h2-------


BRIDGE:

e|---------------------------------------------------------------------------
B|----------------1--------------1-------------1--------------1-----------
G|----------------0--------------0-------------0--------------0-----------
D|---------------------------------------------------------------------------
A|-----0h2--------3--------3------------3--------------3--------------3---
E|---------------------------------------------------------------------------


-------1---------------1-----------3------------3--------------------------
-------2---------------2-----------2------------2--------------------------
---------------0--------------0---------------------------------------------
--------------------------------------------2------------2------------------


---3--------3--------3--------3--------3--------3-------3-------3------
---0--------0--------2--------2--------0--------0-------2-------4------
--------3--------3---------2-------2--------3--------3-------2-------0-


---1-----------1-----------1------------1-----------1-----------1---------
---0-----------0-----------0------------0-----------2-----------2---------
---------3------------3-----------3------------3----------0-----------0---


-------3---------3---------3---------3---------3---------3-------------
-------2---------2---------0---------0---------2---------2------------- 
------------2----------2---------3---------3----------2---------2-------


---------------------------------------------------------|
----0---------0---------2---------3---------2---------|
----1---------1---------2---------4---------2---------|
---------------------------------------------------------|
----------------------------------------------------0----|
----------0---------0----------0--------0--------------|

VERSE 1:
Would you know my name if I saw you in heaven?
Would it be the same if I saw you in heaven?
I must be strong and carry on,
Cause I know I don't belong here in heaven.

VERSE 2:
Would you hold my hand if I saw you in heaven?
Would you help me stand if I saw you in heaven?
I'll find my way through night and day,
Cause I know I just can't stay here in heaven.

BRIDGE:
Time can bring you down, time can bend your knees.
Time can break your heart, have you begging please, begging please.

VERSE 3:
("Would you know my name" part is played like normal but it is just a solo
time.... then you pick right back up with the rest of the lyrics)
Beyond the door there's peace I'm sure,
And I know there'll be no more tears in heaven.


REPEAT FIRST VERSE


INTRO
VERSE 1
INTRO
VERSE 2
INTRO
BRIDGE
VERSE 3
INTRO
VERSE 1
INTRO (slowing down towards the end)





Comments


Popular Eric Clapton tabs & chords
Keep On Growing Chords
Nobody Knows You When Youre Down And Out 1 Chords
Smile Chords
Tears In Heaven 1 Chords
Layla (Intro) Tabs
Signe Tabs
Somewhere Over The Rainbow Live Tabs
Wanna Make Love To You Tabs
Forever Man Ukulele
Rockin Chair Ukulele


Song lyrics



↑ Back to top | Tablatures and chords are parodies/interpretations of the original songs. You may use it for private study, scholarship, research or language learning purposes only
© 2014 AZChords.com Contact us | Privacy policy | DMCA | Add/correct tabs | Request tabs | Top 50 tabs