» » »

Eric Clapton, Tears In Heaven Tabs (ver.1)

Artists:  A B C D E F G H I J K L M N O P Q R S T U V W X Y Z # 

Tears In Heaven Tabs (ver.1)

Eric Clapton Tabs
 Rating:
3.4/5 (5 votes)
Tears In Heaven lessons Tabs too difficult? Try these video lessons and learn fast
                Intro :  
    Em7 Also works on Em                  E       A                      D
e----------|------------------------------------------------|
b----------|---2h3p2------5----5--2~~----2-----2----2----3--|
g----------|---------2----4----4--2~~----2-----2----2----2--|
d----------|-2----------------------------------------------|
a-------0~~|------------------------------------------------|
e---0h2----|-----------------4----2~~--2----2--0--0---0---2-|
                      
            E7
e-----------------------------------------------|
b--3---3----3---2-------2----2----2-------------|
g--2---2----1---2-------2----2----2-------------|
d-----------------------------------------------|
a--------------------0-----0----0----------0~---|
e----2----2----------------------------0h2------|


Guitar 2 fills :
 fill 1                          fill 2
e--/7--5------------------------|--------------------------|
b----------7--5------5----3~~---|--7--9--9h10~--9--7--9--3-|
g-----------------6-------2~~---|------------------------2-|
d-------------------------------|--------------------------|
a-------------------------------|--------------------------|
e-------------------------------|--------------------------|
fill 3
e----------------------------|
b----------2h3p2-------------|
g------2h4-------4p2--------|
d--24-----------------2-----|
a----------------------------|
e----------------------------|

    Em7                   E       A                      D
e----------|------------------------------------------------|
b----------|---2h3p2------5----5--2~~----2-----2----2----3--|
g----------|---------2----4----4--2~~----2-----2----2----2--|
d----------|-2----------------------------------------------|
a-------0~~|------------------------------------------------|
e---0h2----|-----------------4----2~~--2----2--0--0---0---2-|
                              
                                          
       
e---------------------------------------|
b--3---3----2----3--0-------0----2---3--|
g--2---2----2----2--2-------1----2---4--|
d---------------------------------------|
a---------------------------------------|
e----2---------2----------0----0---0----|
  



   F#                       Db                    
e--------2-----------2-------------1----------1---------0-----|
b--2-----------2--------------2----------2----------2---------|
g--2-----------2--------------1----------1----------0---------|
d-------------------------------------------------------------|
a-------------------------------------------------------------|
e-----2------2-----2----2--------1-----1----1-----0----0------|
            
 
e-----------0----------------------------------------------|
b------2---------------2---------2----2----2----------3----|
g------0----------3--3-3----3----3----3----3--------2------|
d----------------------------------------0--------0--------|
a----------------------------------------------------------|
e---0-----0----0--2-------2----2----2----------------------|

e-------------------------------0-------|  
b--------3---------------3--3~~---3-----|
g------2---2~~~----------2--2~~---------|
d----0----------------------------------|
a--0------------------------------------|
e---------------------------------------|
          Bridge :
e----------------------------------------------------------|
b--------------1------------------1----1~~----3----4--4----|
g--------------0------------------0----2~~----2----3--3----|
d------------2----------------2--------2~~--0----0---------|
a----0h2h3~~--------------3-2------------------------------|
e----------------------------------------------------------|

e----------------------------------|
b---0-----0----2----3~-------------|
g---0-----1----2----2~-------------|
d------------0---0-----------------|
a----------------------------------|
e------0---------------------------|

Solo 
  
e-------------------------|-----------------------------
b-----0-----2-----3-------|--14--------17-17-14~~~~~----
g-----1-----2-----4-------|-----14~~--------------------
d-------------------------|-----------------------------
a-------------------------|-----------------------------
e--0------0----0------0~~~|-----------------------------
                    
        guitar 2 plays
                          
e------------------------------------------------------
b-15-15-14-12----14-12~-------14------(17)-19--14~~~~-
g-------------14------------------14~~-----------------
d------------------------------------------------------
a------------------------------------------------------
e------------------------------------------------------

e------------------------------------------------------
b--15-15-14-12----14-12~~~-----0----2-----4------------
g--------------14--------------1----2-----3------------                    
d------------------------------------------------------
a------------------------------------------------------
e---------------------------0-----0----0-----0-into-F#m

URIEL Y MICHELLE
URIEL & MICHELLE
            
Submit corrections

comments powered by Disqus
↑ Back to top | Eric Clapton Tabs for Tears In Heaven. Lyrics for acoustic guitar and electric guitar. Tablatures and chords are parodies/interpretations of the original songs. You may use it for private study, scholarship, research or language learning purposes only