» » »

Sunshine Of Your Love Tabs (ver.2)

Artists:  A B C D E F G H I J K L M N O P Q R S T U V W X Y Z # 

Sunshine Of Your Love Tabs (ver.2)

Eric Clapton
Rating:
0/5 (0 votes)

Hard to play? Try these video lessons and learn fast.
                By Dougie

INTRO:

You Play This Part Twice:

E --------------------------------------------------------------------
B --------------------------------------------------------------------
G --------------------------------------------------------------------
D -12-12-10-12------------------------12-12-10-12---------------------
A -------------12--11--10-----8~------------------12--11--10-----8~---
E------------------------/10------10--------------------------/10----10-

Intro 2     This Is Also Played Twice Before The Verse Kicks In

E ------------------------------------------------------------------------
B ------------------------------------------------------------------------
G --11-11-9--11-------------/12--10~------11-11-9--11------------/12-10~----
D --10-10-8--10-------------/12------12---10-10-8--10------------/12-----12-
A --12-12-10-12---12-11-10---------------12-12-10-12---12-11-10-----------
E --10-10-8--10--------------------------10-10-8--10----------------------

Verse 1: Its Exactly The Same As Above, Played 4 Times

E ------------------------------------------------------------------------
B ------------------------------------------------------------------------
G --11-11-9--11-------------/12--10~------11-11-9--11------------/12-10~----
D --10-10-8--10-------------/12------12---10-10-8--10------------/12-----12-
A --12-12-10-12---12-11-10---------------12-12-10-12---12-11-10-----------
E --10-10-8--10--------------------------10-10-8--10----------------------

Verse 2: Played Twice

E ------------------------------------------------------------------------
B ------------------------------------------------------------------------
G -12-12-10-12------------------------12-12-10-12-------------------------
D -12-12-10-12--12--11--10-----8~-----12-12-10-12-12--11--10---------8~------
A -------------------------/10-----10--------------------------/10------10--
E ------------------------------------------------------------------------

Then Verse 1 Is Repeated Twice THEN:

Chorus: X2

E ---------------------------------------------|---------------------
B ---------------------------------------------|---------------------
G --6-6-6--------5------------6-6-6-----5------|---------------------
D --7-7-7--------5----5-------7-7-7-----5---5--|---7-7-7-7-7-7-7-----
A --7-7-7--------3----5-------7-7-7-----3---5--|---7-7-7-7-7-7-7-----
E --5-5-5-------------3-------5-5-5---------3--|---5-5-5-5-5-5-5-----

Then You Repeat All Of This.....

Sorry Im Not So Sure About the solo but i might figure it
out some other time. Apart from that i think this tab is 
nearly 100% perfect but i might be wrong.


Intro x2
Intro Two x2
Verse 1 x4
Verse 2 x2
Verse 1 x2
Chorus x2


Intro x2
Intro Two x2
Verse 1 x4
Verse 2 x2
Verse 1 x2
Chorus x2
Solo
Intro 1 
Verse 1 x4
Verse 2 x2
Verse 1 x2
Chorus x 3
            
Hard to play? Try these video lessons and learn fast. | Correct




comments powered by Disqus
↑ Back to top | Tablatures and chords are parodies/interpretations of the original songs. You may use it for private study, scholarship, research or language learning purposes only