» » »

Eric Clapton, Signe Tabs (ver.4)

Artists:  A B C D E F G H I J K L M N O P Q R S T U V W X Y Z # 

Signe Tabs (ver.4)

Eric Clapton Tabs
 Rating:
4/5 (4 votes)
Signe lessons Tabs too difficult? Try these video lessons and learn fast
                                                    Signe


                                                                   Clapton, Eric
Accoustic Guitar


E||-------------------|---------------0-------|----0------------------|
B||-------------------|--2-------0---------2--|------------0----------|
G||-------------------|--2-------1---------2--|------------1----------|
D||-------------------|-----------------------|-----------------------|
A||----------------0--|-------0------------0--|---------0-------------|
E||-------------------|-----------------------|-----------------0--0--|

-------0-------0-------|----0-----------------|-------0-------0-------|
--2-------0---------2--|------------0---------|--2-------0---------2--|
--2-------1---------2--|------------1---------|--2-------1---------2--|
-----------------------|----------------------|-----------------------|
--0-------0---------0--|---------0---------0--|----------0---------0--|
-----------------------|----------------------|-----------------------|

----0-----------------|-------0-------0-------|-----------------------|
------------0---------|--2-------0---------2--|-----------------0--2--|
------------1---------|--2-------1---------2--|-----------1--2-----2--|
----------------------|-----------------------|--------2-----------2--|
---------0------------|--0-------0---------0--|--------------------0--|
-------------------0--|-----------------------|-----------------------|

----0----------0----0--|----4------------------|----2------------------|
------------4----------|---------------2----3--|------------3--2----0--|
------------4-------4--|------------3-------2--|------------2-------1--|
------------4-------6--|------------4-------4--|------------4-------2--|
---------0-------------|------------4-------2--|---------2-------------|
--------------------4--|---------2-------------|--------------------0--|

----0-------------------|----0-------------------|----2-------------------|
------------3--2--0--2--|------------2--0--------|---------------0--2--3--|
---------------------2--|------------------2--3--|------------3--------2--|
---------------------2--|---------------------2--|---------------------4--|
---------------------0--|---------0--------------|---------------------2--|
---------0--------------|---------------------2--|---------2--------------|

----2------------------|----0-------------------|----0----------0-------|
------------3--2----0--|------------0--------2--|------------2-------3--|
------------2-------1--|---------------2--1--2--|------------2-------2--|
------------4-------2--|---------------------2--|-----------------------|
---------2-------------|---------------------0--|---------0-------------|
--------------------0--|---------0--------------|--------------------2--|

----0----------0-------|----0----------0-------|----0-------------------|
------------3-------3--|------------3-------3--|------------0--------2--|
------------2-------2--|------------2-------1--|---------------2--1--2--|
-----------------------|-----------------------|---------------------2--|
-----------------------|-----------------------|---------------------0--|
---------2----------0--|---------0----------0--|---------0--------------|

----0----------0-------|----0----------0-------|----0----------0-------|
------------2-------3--|------------3-------3--|------------3-------3--|
------------2-------2--|------------2-------2--|------------2-------1--|
-----------------------|-----------------------|-----------------------|
---------0-------------|-----------------------|-----------------------|
--------------------2--|---------2----------0--|---------0----------0--|

----0-------------------|----0----------0----0--|----4------------------|
------------------0--2--|------------4----------|---------------2----3--|
------------1--2-----2--|------------4-------4--|------------3-------2--|
---------------------2--|------------4-------6--|------------4-------4--|
---------------------0--|---------0-------------|------------4-------2--|
---------0--------------|--------------------4--|---------2-------------|

----2------------------|----0-------------------|----0-------------------|
------------3--2----0--|------------3--2--0--2--|------------2--0--------|
------------2-------1--|---------------------2--|------------------2--3--|
------------4-------2--|---------------------2--|---------------------2--|
---------2-------------|---------------------0--|---------0--------------|
--------------------0--|---------0--------------|---------------------2--|

----2-------------------|----2------------------|----0-------------------|
---------------0--2--3--|------------3--2----0--|------------0--------2--|
------------3--------2--|------------2-------1--|---------------2--1--2--|
---------------------4--|------------4-------2--|---------------------2--|
---------------------2--|---------2-------------|---------------------0--|
---------2--------------|--------------------0--|---------0--------------|

----0----------0-------|----0----------0-------|----0----------0-------|
------------2-------3--|------------3-------3--|------------3-------3--|
------------2-------2--|------------2-------2--|------------2-------1--|
-----------------------|-----------------------|-----------------------|
---------0-------------|-----------------------|-----------------------|
--------------------2--|---------2----------0--|---------0----------0--|

----0-------------------|----0----------0-------|----0----------0-------|
------------0--------2--|------------2-------3--|------------3-------3--|
---------------2--1--2--|------------2-------2--|------------2-------2--|
---------------------2--|-----------------------|-----------------------|
---------------------0--|---------0-------------|-----------------------|
---------0--------------|--------------------2--|---------2----------0--|

----0----------0-------|----0------------------|-----0----0----0-------|
------------3-------3--|------------------0----|--4--0----0----0----2--|
------------2-------1--|------------1--2-------|--4--1--------------2--|
-----------------------|-----------------------|--4-------6----6----2--|
-----------------------|-----------------------|--4-------4----4-------|
---------0----------0--|---------0-------------|--------------------2--|

--------------2-------|----2------------------|----0------------------|
-----------2-------3--|------------3--2----0--|------------------0----|
-----------2-------2--|------------2-------1--|------------1--2-------|
-----------2-------4--|------------4-------2--|-----------------------|
-------------------2--|---------2-------------|-----------------------|
--------2-------------|--------------------0--|---------0-------------|

-----0----0----0-------|--------------2-------|----2------------------|
--4--0----0----0----2--|-----------2-------3--|------------3--2----0--|
--4--1--------------2--|-----------2-------2--|------------2-------1--|
--4-------6----6----2--|-----------2-------4--|------------4-------2--|
--4-------4----4-------|-------------------2--|---------2-------------|
--------------------2--|--------2-------------|--------------------0--|

----0------------------|----4----4----4-------|--------------2-------|
------------------0----|----5----5----5----2--|-----------2-------3--|
------------1--2-------|----4----4----4----2--|-----------2-------2--|
-----------------------|-------------------2--|-----------2-------4--|
-----------------------|----------------------|-------------------2--|
---------0-------------|----4----4----4----2--|--------2-------------|

----2------------------|----0-------------------|----0----------0-------|
------------3--2----0--|------------0--------2--|------------2-------3--|
------------2-------1--|---------------2--1--2--|------------2-------2--|
------------4-------2--|---------------------2--|-----------------------|
---------2-------------|---------------------0--|---------0-------------|
--------------------0--|---------0--------------|--------------------2--|

----0----------0-------|----0----------0-------|----0-------------------|
------------3-------3--|------------3-------3--|------------0--------2--|
------------2-------2--|------------2-------1--|---------------2--1--2--|
-----------------------|-----------------------|---------------------2--|
-----------------------|-----------------------|---------------------0--|
---------2----------0--|---------0----------0--|---------0--------------|

----0----------0-------|----0----------0-------|----0----------0-------|
------------2-------3--|------------3-------3--|------------3-------3--|
------------2-------2--|------------2-------2--|------------2-------1--|
-----------------------|-----------------------|-----------------------|
---------0-------------|-----------------------|-----------------------|
--------------------2--|---------2----------0--|---------0----------0--|

----0-------------------|----0---------0----0--|----4----------2-------|
------------0--------2--|----2----4------------|----5----2-----2----3--|
---------------2--1--2--|---------4----4----4--|---------2--3-------2--|
---------------------2--|---------4----4----6--|--------------------4--|
---------------------0--|---------0------------|--------------------2--|
---------0--------------|-------------------4--|---------2-------------|

----2------------------|----0-------------------|----0------------------|
----3-------3--2----0--|----0-------3--2--0--2--|----2-------2--0----2--|
------------2-------1--|---------------------2--|------------2--1----2--|
------------4-------2--|---------------------2--|-----------------------|
---------2-------------|---------------------0--|---------0-------------|
--------------------0--|---------0--------------|--------------------2--|

-----2-------------------|----2------------------|----0-------------------|
-----2----------0--2--3--|----3-------3--2----0--|----0-------0--------2--|
--3----------2--------2--|------------2-------1--|---------------2--1--2--|
----------------------4--|------------4-------2--|---------------------2--|
----------------------2--|---------2-------------|---------------------0--|
----------2--------------|--------------------0--|---------0--------------|

----0----------0-------|----0----------0-------|----0----------0-------|
------------2-------3--|------------3-------3--|------------3-------3--|
------------2-------2--|------------2-------2--|------------2-------1--|
-----------------------|-----------------------|-----------------------|
---------0-------------|-----------------------|-----------------------|
--------------------2--|---------2----------0--|---------0----------0--|

----0-------------------|----0----------0-------|----0----------0-------|
------------0--------2--|------------2-------3--|------------3-------3--|
---------------2--1--2--|------------2-------2--|------------2-------2--|
---------------------2--|-----------------------|-----------------------|
---------------------0--|---------0-------------|-----------------------|
---------0--------------|--------------------2--|---------2----------0--|

----0----------0-------|----0------------------|----------------0--5--|
------------3-------3--|----3-------0----------|-------------2--------|
------------2-------1--|----1----------2-------|----------2-----------|
-----------------------|---------2--------6----|----------------------|
-----------------------|------------2--0-------|----------0-----------|
---------0----------0--|---------0--------4----|----------------------|

------------------||
------------------||
------------------||
------------------||
------------------||
------------------||
            
Submit corrections

comments powered by Disqus
↑ Back to top | Eric Clapton Tabs for Signe. Lyrics for acoustic guitar and electric guitar. Tablatures and chords are parodies/interpretations of the original songs. You may use it for private study, scholarship, research or language learning purposes only