» » »

Eric Clapton, Signe Tabs (ver.3)

Artists:  A B C D E F G H I J K L M N O P Q R S T U V W X Y Z # 

Signe Tabs (ver.3)

Eric Clapton Tabs
 Rating:
4/5 (4 votes)
Signe lessons Tabs too difficult? Try these video lessons and learn fast
                Intro:
                  
                  1.2.3.                4. 
      A   E/A       A       E/A           A
|-------------0--|-----0---------|-----|---------|-------------|
|-----2----0-----|--2--------0---|-----|----2----|----------0--|
|-----2----1-----|--2--------1--o|-----|----2----|-----1h2-----|
|-----2----2-----|--2--------2--o|-----|----2----|-------------|
|--0-----0-------|--0-----0------|-----|----0----|-------------|
|----------------|---------------|-----|---------|--0----------|

Part 1:
                  A                F#                  Bm             E
|-----0----------|-----2-------------|-----2----------|-----0------------|
|--2--------2p0--|----------------2--|--3--------3p2--|--0--------3p2-0--|
|o-2--------2----|--3--------3h4-----|--4--------4----|--1--------------o|
|o---------------|--4----------------|----------------|-----------------o|
|--0-----0-------|-------------------|--2-----2-------|------------------|
|----------------|--2-----2----------|----------------|--0-----0---------|

Part 2:
    A               D9/F#             D9/E              E7/A
|-----0--------0--|-----0--------0--|-----0--------0--|-----0-------------|
|--2--------2-----|--3--------3-----|--3--------3-----|--3--------3p2-0---|
|o-2--------2-----|--2--------2-----|--2--------2-----|--1---------------o|
|o----------------|-----------------|-----------------|------------------o|
|--0-----0--------|-----------------|-----------------|-------------------|
|-----------------|--2-----2--------|--0-----0--------|--0-----0----------|


Part 3:
                                                  
                                                    1.                
    C#m7          F#m7               Bm               E               
|--------4--4--|-----2--------2--|-----2----------|-----0------------|
|-----5--5--5--|--2--------2-----|--3--------3p2--|--0--------3p2-0--|
|o----4--4--4--|--2--------2-----|--4--------4----|--1--------------o|
|o-------------|-----------------|----------------|-----------------o|
|--4-----------|-----------------|--2-----2-------|------------------|
|--------------|--2-----2--------|----------------|--0-----0---------|


 2.               
   E                 C#m7        F#m7              Bm               E
|-----0------------|--4--4--4--|-----2--------2--|-----2----------|-----0---|
|--0------------0--|--5--5--5--|--2--------2-----|--3--------3p2--|--0------|---3p2-0-|
|--1--------1h2----|--4--4--4--|--2--------2-----|--4--------4----|--1------|
|------------------|-----------|-----------------|----------------|---------|
|------------------|--4--4--4--|-----------------|--2-----2-------|---------|
|--0-----0---------|-----------|--2-----2--------|----------------|--0-----0|


(Repeat This Part Two)

Part Four:

   A   D9/F#  C#m7  F#m7      Bm               E
|-----0-----0-----4-----2--|-----3----------|-----0------------|
|--2-----3-----5-----2-----|--3--------3p2--|--0--------3p2-0--|
|--2-----2-----4-----2-----|--4--------4----|--1---------------|
|--------------------------|----------------|------------------|
|--0-----------4-----------|--2-----2-------|------------------|
|--------2-----------2-----|----------------|--0-----0---------|

   A                F#                  Bm             E
|-----0----------|-----2-------------|-----2----------|-----0------------|
|--2--------2p0--|----------------2--|--3--------3p2--|--0--------3p2-0--|
|--2--------2----|--3--------3h4-----|--4--------4----|--1---------------|
|----------------|--4----------------|----------------|------------------|
|--0-----0-------|-------------------|--2-----2-------|------------------|
|----------------|--2-----2----------|----------------|--0-----0---------|

End:
                                                     
                                                        1.2.3.4.5          
    A               D9/F#             D9/E               E7/A             
|-----0--------0--|-----0--------0--|-----0--------0--|-----0-------------|
|--2--------2-----|--3--------3-----|--3--------3-----|--3--------3p2-0---|
|o-2--------2-----|--2--------2-----|--2--------2-----|--1---------------o|
|o----------------|-----------------|-----------------|------------------o|
|--0-----0--------|-----------------|-----------------|-------------------|
|-----------------|--2-----2--------|--0-----0--------|--0-----0----------|

 6.                  
  E7/A               
|-----0--------------|--5-----|
|--3--------3--2--0--|--2-----|
|--1-----------------|--2-----|
|--------------------|--2-----|
|--------------------|--0-----|
|--0-----0-----------|--------|
            
Submit corrections

comments powered by Disqus
↑ Back to top | Eric Clapton Tabs for Signe. Lyrics for acoustic guitar and electric guitar. Tablatures and chords are parodies/interpretations of the original songs. You may use it for private study, scholarship, research or language learning purposes only