» » »

Eric Clapton, Peaches And Diesel Tabs (ver.1)

Artists:  A B C D E F G H I J K L M N O P Q R S T U V W X Y Z # 

Peaches And Diesel Tabs (ver.1)

Eric Clapton Tabs
 Rating:
4/5 (4 votes)
Peaches And Diesel lessons Tabs too difficult? Try these video lessons and learn fast
1
                
See also the tab for solo guitar!

Chorus (Intro):

 D                 A/D               D7sus4           Gm/D     G/D
 +   +   +   +     +   +   +   +     +   +   +   +     +   +   +   +
-------2---------|-------0---------|-------3---------|-------3-------3-|
-----3-----3---3-|-----2-----2---2-|-----1-------1---|-----3-------3---|
---2---------2---|---2---------2---|---2-------2---2-|---3-------4-----|
-0-------0-------|-0-------0-------|-0-------0-------|-0-------0-------|
-----------------|-----------------|-----------------|-----------------|
-----------------|-----------------|-----------------|-----------------|

 D                A/D               D7sus4            Gm/D     C
 +   +   +   +     +   +   +   +     +   +   +   +     +   +   +   +
-------2---------|-------0---------|-------3---------|-------3-------0-||
-----3-----3---2-|-----2-----2---2-|-----1-------1---|-----3-------1---||
---2---------2---|---2---------2---|---2-------2---2-|---3-------0-----||
-0-------0-------|-0-------0-------|-0-------0-------|-0---------------||
-----------------|-----------------|-----------------|---------3-------||
-----------------|-----------------|-----------------|-----------------||

Verse:

 F                 G7/F              Em                Am      Am/G
 +   +   +   +     +   +   +   +     +   +   +   +     +   +   +   +
-------1---------|-------1---------|-------0---------|-----------------|
-----1-----1---1-|-----0-----0---0-|-----0-----0---0-|-------1-------1-|
---2---------2---|---0---------0---|---0---------0---|-----2-------2---|
-3-------3-------|-3-------3-------|-2-------2-------|---2-------2-----|
-----------------|-----------------|-----------------|-0---------------|
-----------------|-----------------|-----------------|---------3-------|

 F                 G7/F              Em                Am      Am/G
 +   +   +   +     +   +   +   +     +   +   +   +     +   +   +   +
-------1---------|-------1---------|-------0---------|-----------------|
-----1-----1---1-|-----0-----0---0-|-----0-----0---0-|-------1-------1-|
---2---------2---|---0---------0---|---0---------0---|-----2-------2---|
-3-------3-------|-3-------3-------|-2-------2-------|---2-------2-----|
-----------------|-----------------|-----------------|-0---------------|
-----------------|-----------------|-----------------|---------3-------|

 F                 E                 E/A   A  (Let ring!................)
 +   +   +   +     +   +   +   +     +   +   +   +
-------1---------|-------0---------|-0-----0-0-------|-----------------||
-----1-----1---1-|-----0-----0---0-|-0-----2-2-------|-----------------||
---2---------2---|---1---------1---|-1-----2-2-------|-----------------||
-3-------3-------|-2-------2-------|-----------------|-----------------||
-----------------|-----------------|-0-----0-0-------|-----------------||
-----------------|-----------------|-----------------|-----------------||

Repeat Chorus & Verse, then play:

Chorus:

 D                 A/D               D7sus4            Gm/D    G/D
 +   +   +   +     +   +   +   +     +   +   +   +     +   +   +   +
-------2---------|-------0---------|-------3---------|-------3-------3-|
-----3-------3---|-----2-------2---|-----1-------1---|-----3-------3---|
---2-------2---2-|---2-------2---2-|---2-------2---2-|---3-------4-----|
-0-------0-------|-0-------0-------|-0-------0-------|-0-------0-------|
-----------------|-----------------|-----------------|-----------------|
-----------------|-----------------|-----------------|-----------------|

 D                 A/D               D7sus4            Gm/D    G/D
 +   +   +  +      +   +   +   +     +   +   +   +     +   +   +   +
-------2---------|-------0---------|-------3---------|-------3-------3-|
-----3-----3---3-|-----2-------2---|-----1-------1---|-----3-------4---|
---2---------2---|---2-------2---2-|---2-------2---2-|---3-------3-----|
-0-------0-------|-0-------0-------|-0-------0-------|-0-------0-------|
-----------------|-----------------|-----------------|-----------------|
-----------------|-----------------|-----------------|-----------------|

 E/D               A (Let ring!....)
 +   +   +   +     +   +   +   +
-------4---------|-5---------------||
-----5-------5---|-5---------------||
---4-------4---4-|-6---------------||
-0-------0-------|-7---------------||
-----------------|-0---------------||
-----------------|-----------------||

Bridge (Solo):

 Bb6               Bbdim             Am7           Dm        Dm/C     Bb6
 +   +   +   +     +   +   +   +     +   +   +   +     +   +   +   +
-----------------|-----------------|-----------------|-----------------|
-------3---------|-------2---------|-------1---------|-----3-------3---|
-----0-----0---0-|-----0-----0---0-|-----0-----0-----|---2-------2-----|
---3---------3---|---2---------2---|---2---------2-0-|-----------------|
-1-------1-------|-1-------1-------|-0-------0-------|-------3-------1-|
-----------------|-----------------|-----------------|-----------------|

                   Bb/C              Bb/F  F (Let ring!................)
 +   +   +   +     +   +   +   +     +   +   +   +     +   +   +   +
-----------------|-----------------|-----------------|-----------------||
-------3---------|-------3---------|-3-----1-1-------|-----------------||
-----0-----0---0-|-----3-----3---3-|-3-----2-2-------|-----------------||
---3---------3---|---3---------3---|-3-----3-3-------|-----------------||
---------1-------|-3-------3-------|-----------------|-----------------||
-----------------|-----------------|-1-----1-1-------|-----------------||

 Bb6               Bbdim            Am7            Dm        Dm/C     Bb6
 +   +   +   +     +   +   +   +     +   +   +   +     +   +   +   +
-----------------|-----------------|-----------------|-----------------|
-------3---------|-------2---------|-------1---------|-----3-------3---|
-----0-----0---0-|-----0-----0---0-|-----0-----0-----|---2-------2-----|
---3---------3---|---2---------2---|---2---------2-0-|-----------------|
-1-------1-------|-1-------1-------|-0-------0-------|-------3-------1-|
-----------------|-----------------|-----------------|-----------------|

                   Bb/C
 +   +   +   +     +   +   +   +
-----------------|-----------------||
-------3---------|-------3---------||
-----0-----0---0-|-----3-----3---3-||
---3---------3---|---3---------3---||
---------1-------|-3-------3-------||
-----------------|-----------------||

Chorus:

 D                 A/D               D7sus4           Gm/D     G/D
 +   +   +   +     +   +   +   +     +   +   +   +     +   +   +   +
-------2---------|-------0---------|-------3---------|-------3-------3-|
-----3-----3---3-|-----2-----2---2-|-----1-------1---|-----3-------3---|
---2---------2---|---2---------2---|---2-------2---2-|---3-------4-----|
-0-------0-------|-0-------0-------|-0-------0-------|-0-------0-------|
-----------------|-----------------|-----------------|-----------------|
-----------------|-----------------|-----------------|-----------------|

 D                A/D               D7sus4            Gm/D     C
 +   +   +   +     +   +   +   +     +   +   +   +     +   +   +   +
-------2---------|-------0---------|-------3---------|-------3-------0-||
-----3-----3---2-|-----2-----2---2-|-----1-------1---|-----3-------1---||
---2---------2---|---2---------2---|---2-------2---2-|---3-------0-----||
-0-------0-------|-0-------0-------|-0-------0-------|-0---------------||
-----------------|-----------------|-----------------|---------3-------||
-----------------|-----------------|-----------------|-----------------||

Verse:

 F                 G7/F              Em                Am      Am/G
 +   +   +   +     +   +   +   +     +   +   +   +     +   +   +   +
-------1---------|-------1---------|-------0---------|-----------------|
-----1-----1---1-|-----0-----0---0-|-----0-----0---0-|-------1-------1-|
---2---------2---|---0---------0---|---0---------0---|-----2-------2---|
-3-------3-------|-3-------3-------|-2-------2-------|---2-------2-----|
-----------------|-----------------|-----------------|-0---------------|
-----------------|-----------------|-----------------|---------3-------|

 F                 G7/F              Em                Am      Am/G
 +   +   +   +     +   +   +   +     +   +   +   +     +   +   +   +
-------1---------|-------1---------|-------0---------|-----------------|
-----1-----1---1-|-----0-----0---0-|-----0-----0---0-|-------1-------1-|
---2---------2---|---0---------0---|---0---------0---|-----2-------2---|
-3-------3-------|-3-------3-------|-2-------2-------|---2-------2-----|
-----------------|-----------------|-----------------|-0---------------|
-----------------|-----------------|-----------------|---------3-------|

 F                 E                 E/A   A  (Let ring!................)
 +   +   +   +     +   +   +   +     +   +   +   +
-------1---------|-------0---------|-0-----0-0-------|-----------------||
-----1-----1---1-|-----0-----0---0-|-0-----2-2-------|-----------------||
---2---------2---|---1---------1---|-1-----2-2-------|-----------------||
-3-------3-------|-2-------2-------|-----------------|-----------------||
-----------------|-----------------|-0-----0-0-------|-----------------||
-----------------|-----------------|-----------------|-----------------||

Chorus:

 D                 A/D               D7sus4           Gm/D     G/D
 +   +   +   +     +   +   +   +     +   +   +   +     +   +   +   +
-------2---------|-------0---------|-------3---------|-------3-------3-||
-----3-----3---3-|-----2-----2---2-|-----1-------1---|-----3-------3---||
---2---------2---|---2---------2---|---2-------2---2-|---3-------4-----||
-0-------0-------|-0-------0-------|-0-------0-------|-0-------0-------||
-----------------|-----------------|-----------------|-----------------||
-----------------|-----------------|-----------------|-----------------||

Repeat last chorus ad lib and fade out
            
Submit corrections

comments powered by Disqus
↑ Back to top | Eric Clapton Tabs for Peaches And Diesel. Lyrics for acoustic guitar and electric guitar. 1 Tablatures and chords are parodies/interpretations of the original songs. You may use it for private study, scholarship, research or language learning purposes only