» » »

Outside Woman Blues Bass tabs (ver.1)

Artists:  A B C D E F G H I J K L M N O P Q R S T U V W X Y Z # 

Outside Woman Blues Bass tabs (ver.1)

Eric Clapton
Rating:
0/5 (0 votes)

Hard to play? Try these video lessons and learn fast.
                Outside Woman Blues(Blind Joe Reynolds) cover by Eric Clapton
Tuning: Standard E,A,D,G

G|-------------------------------------|
D|-------------------------------------|
A|-----------------------7--------5----|
E|---0--0----12\----7h9------5h7-------|

G|------------------------------------|
D|------5--7-8-7---5~-----------------|
A|--/7-----------7----7---------------|
E|------------------------------------|

G|------------------------------------|
D|------------------------------------|
A|-0-1-2--2---2---2--2----------------|
E|-----------------------3--0---------|


I think this is how is it sort of played. I am a guitar player not a bass. I I just tab 
the basics of this song. But you can use these parts I tabbed to play the whole song.

| /  slide up
| \  slide down
| h  hammer-on
| ~  vibrato
===============================================================================
            
Hard to play? Try these video lessons and learn fast. | Correct




comments powered by Disqus
↑ Back to top | Tablatures and chords are parodies/interpretations of the original songs. You may use it for private study, scholarship, research or language learning purposes only