» » »

Eric Clapton, Outside Woman Blues Tabs (ver.1)

Artists:  A B C D E F G H I J K L M N O P Q R S T U V W X Y Z # 

Outside Woman Blues Tabs (ver.1)

Eric Clapton Tabs
 Rating:
4/5 (4 votes)
Outside Woman Blues lessons Tabs too difficult? Try these video lessons and learn fast
1
                -------------------------------------------------------------------------------
-------------------------------------------------------------------------------

Tuning: Standard (E,A,D,G,B,E)

| /  slide up
| h  hammer-on
| ~  vibrato

========Riffs======================
  Part 1           Part 2
|-----------------|-------|
|------8----------|-------|
|------7----------|-------|
|------6--------2-|-----0-| riff 1
|------7----2h4---|-0h2---|
|-0-0-------------|-------|

|-------------------------|
|-------------------------|
|-------------------------|
|----5-7-8-7-5----5~------| riff 2
|-/7------------7----7----|
|-------------------------|
*Note: after playing riff 2 play the 2nd part of riff 1*

|-------------------------------------------------------|
|-----------3-------3-----3-------3-----3-------3-------|
|-----------2-------2-----2-------2-----2-------2-------|
|-----------1-------1-----1-------1-----1-------1-------| riff 3
|-0--1--2---2--2-2--2--2--2--2-2--2--2--2--2-2--2-------|
|-------------------------------------------------------|

|---------7---------------|
|----8-10---10-8----8~----|
|-/9--------------9----9--|
|-------------------------| riff 4
|-------------------------|
|-------------------------|
*Note: after playing riff 4 play the 2nd part of riff 1*

|-----------------------|
|--3--3--3--3--3--3--3--|
|--2--2--2--2--2--2--2--|
|--1--1--1--1--1--1--1--| Riff 5
|--2--2--2--2--2--2--2--|
|-----------------------|

===================================

(play both parts of riff 1 during verses)
Riff 1                                                  Riff 2
If you lose your money, great God, don't lose your mind.
Riff 1                                                   Riff 2
If you lose your money, great God, don't lose your mind.
Riff 3                                                   Riff 2
And if you lose your woman, please don't fool with mine.

Riff 1                                                   Riff 2
I'm gonna buy me a bulldog, watch my lady whilst I sleep.
Riff 1                                                   Riff 2
I'm gonna buy me a bulldog, watch my lady whilst I sleep.
Riff 3
'Cause women these days, they're so doggone crooked,
That they might make off 'fore day creep.            Riff 2

Riff 1                                                      Riff 2
Well, you can't watch your wife and your outside women, too.
Riff 1                                                           Riff 2
You know you can't watch your wife and your outside womens, too.
Riff 5
Cause when you're out with your women, your wife will be at home,
Cooking your food, doing a dirt, buddy what you trying to do?    Riff 2

Solo:
--------------------------------------12-----------------------------------------------------------|
-----------------------------------12----15-12----------------------------------------15-17--------|
----12-14-15-14-12----12-----14b---------------14b-----14-12-14-12-------12b----14/16-------15\14--|
-14----------------14----14----------------------------------------14-14---------------------------|
---------------------------------------------------------------------------------------------------|
---------------------------------------------------------------------------------------------------|

-----------------------------------------------------------12----------------------------------|
--------12------------------------------------------15b-------15-12----------------------------|
-12-14-----14-12-14-12~----12-14-15-14-12----12--------------------14b----14-12-14-12----------|
------------------------14----------------14----14------------------------------------14-14-14-|
-----------------------------------------------------------------------------------------------|
-----------------------------------------------------------------------------------------------|

------------------12-----15b-----15b-----15-12------------------------------------------------------|
----------------12----12----------------------12----------------------------------------------------|
-12----14-12b-----------------------------------14b----14-12-14-12~~------12-14-15-14-12------12----|
----14----------------------------------------------------------------14------------------14------14|
----------------------------------------------------------------------------------------------------|
----------------------------------------------------------------------------------------------------|

----17b----17b-----17-15-17----17b----15-17-15-------------------------|
-17-------------------------17-----------------17-17b----15b-----------|
----------------------------------------------------------------16\14~-|
-----------------------------------------------------------------------|
-----------------------------------------------------------------------|
-----------------------------------------------------------------------|

-------------------------------------------------------------------------|
-15p12----12-------------------------------------------------------------|
-------14-----14b-----14--12--12-----------12-14-15-14-12-----12---------|
----------------------------------14~~--14----------------14-----14~~----|
-------------------------------------------------------------------------|
-------------------------------------------------------------------------|
Riff 1                                                  Riff 4
You can't watch your wife and your outside womens, too.
Riff 1                                                         Riff 4
You know you can't watch your wife and your outside women, too.
Riff 5
When you're out with your women, your wife will be at home,
Doing a dirt, cooking your food, buddy what you trying to do?

Hmm Hmm Hmmmmmm

-------------------------------------------------------------------------------
			          End
-------------------------------------------------------------------------------
            
Submit corrections

comments powered by Disqus
↑ Back to top | Eric Clapton Tabs for Outside Woman Blues. Lyrics for acoustic guitar and electric guitar. 1 Tablatures and chords are parodies/interpretations of the original songs. You may use it for private study, scholarship, research or language learning purposes only