>
 >
Classical Gas 1

Classical Gas 1 Guitar Tabs

Eric Clapton - Classical Gas 1 chords, tabs, tablatures, lyrics

Guitar lessons | Add/correct | Request | Top 50 tabs Artists:  A B C D E F G H I J K L M N O P Q R S T U V W X Y Z 0-9

Classical Gas 1 Guitar Tabs – Eric Clapton

CD, Sheet music, Poster

Do you like Classical Gas 1? Share with your friends now
TabsTabs v2Tabs v3Tabs v4
e|------------------------------------------------------------------|
B|-1---1--------0---------0--------------0h1--0h1---------0---------|
G|---2--------0---------0---2-0------2--2----2----2-----0---------0-|
D|--------------------2------------2------------------0---------2---|
A|-0-----------------------------0----0-----------------------------|
E|-------3--------2-0-------------------------------3-------2-0-----|

e|--------------------------------0------------------|---------------|
B|0--------0----------0----1----3------3---1-3---1-0~|*0h1---0-1-0---|
G|--2-0-0h2-----2---0----2----0-----0------2---2-----|-----2---------|
D|------------2--------------------------------------|----------2---0|
A|----------0----------0----2-----3------------------|*0-------------|
E|----------------3----------------------------------|------------3--|
                              v--(repeat this riff 4 times)--^
e|--------------------------------------|--------------------------|
B|-----------0--------0----------------*|------0-----0-1-----1-----|
G|0----0---0---2-0-2-----2-----2---2----|----2-----0-------2-----0-|
D|---0-----------------------2---2----2-|--2-----------------------|
A|-------------------------0----0---0--*|0---------------0-----2---|
E|--2-----0--0---------0----------------|--------3-----------------|

e|--0-----------------------------------------------------0-----2---|
B|3-----3-1-3---1-0-----------------0-----0-1-----1-----3---1-----1-|
G|----0---2---------2-0-2-2-0-2---2-----0-------2-----0-------0-----|
D|------------2---------2-------2-------------------------------0---|
A|--3-------------------------0---------------0-----2-----3---------|
E|------------------1---0-------------3-----------------------------|

e|--3-----4---5---7---8-7--------------------------5-----8-7--------|
B|----0-----0---0---0-----10---7---10---7---10-7-----5-------10-7---|
G|2-----0----------------------8----9---7------7-----5--------------|
D|----------------------------------------0------0------------------|
A|--------------------0------0---0----0----------------0-0--------0-|
E|--3-----0---------------------------------------------------------|

e|-----------5----8-7-------------------8---------3--------------1--|
B|10---7-7-----7------10---7---10---7---10-10-8---3-----5--------1--|
G|-9---7-8-----7-----------8----9---7---------9---------5--------2--|
D|---------0--------------------------0-----------------5-0---------|
A|---0-----------0-------0---0----0-------------0-----3-------1-----|
E|--------------------------------------------------3-------1------1|

e|--------0---0---0---0---------0---------------------------------|
B|----3---3---3---3---3-------3---3-------3p0----0p1---------3----|
G|----3---2---2---2---2-----2-------2---2------------2-----2------|
D|----3-------------------3-----------3------------------2-------2|
A|-1----0---0---0---0---0------------------------0-----0-------0--|
E|----------------------------------------------------------------|

e|------------------------------------------------------------------|
B|-1-----0-----0p1-------0-----------------0h1-------0-----1----3---|
G|---------------------2-------2-----0-------------2----------------|
D|-----2-----2-------2-------2-----2-----2-------2-------2----2-----|
A|---0-----0---0---0-------0-----0-----0---0---0-------0----0-----0-|
E|------------------------------------------------------------------|

e|---------------------------------0-----0--------------------1p0---|
B|--5---5-3---3-1---1-0---0---0-1-0----3---1-0----1-0-----3-------3-|
G|----5-----4-----2-----0---2--------0----------0-------0---0-------|
D|2-----------------------------------------------------------------|
A|--0-----0-----0-----0-----0------3----------3-------2---2---2-----|
E|------------------------------------------------------------------|

e|0---0---------------------1p0---0---0---------------------1p0---0-|
B|--3---1------1-0------3-------3---3---1-0-----1-0-----3-------3---|
G|-----------2--------0---0-------------------0-------0---0---------|
D|------------------------------------------------------------------|
A|0--------0----------------------3---------3-------2---2---2-----0-|
E|------------------3---3---3---------------------------------------|

e|--0---------------------------------------------------------0---1-|
B|3---1-----1-0-----------------0-------0---------0---1---3---------|
G|--------2---------0-----0---0---2-0-2-----2-2-----0---0---0---0---|
D|----------------0-----0-----------------------2-------------------|
A|------0-------------------------------------0-------0---2---3-----|
E|--------------3-----2-----0---0---------0-------3---------------1-|

e|--2---3---4---5---7---8-7----------------------5-----8-7----------|
B|--------0---0---0---0-----10-7---10---7-10-7-----5-------10-7---10|
G|2---2------------------------8----9---7----7-----5---------------9|
D|--0------------------------------------------0--------------------|
A|----------------------0--------0----0--------------0-0--------0---|
E|------3---0---0---0-----------------------------------------------|

e|--------5-----8-7-----------------8---------3-------------1--------|
B|--7-7-----7-------10---7---10---7-10-10-8---3-----5-------1-----3--|
G|--7-8-----7------------8----9---7-------9---------5-------2-----3--|
D|-------0------------------------------------------5-0-----------3--|
A|0-----------0-0------0---0----0-----------0-----3-------1-----1---0|
E|-----------------------------------------------3------1-----1------|

    (upstroke final chord)
e|-0---0---0---0-------0~|
B|-3---3---3---3-------3~|
G|-2---2---2---2-----2-2~|
D|-----------------3---3~|
A|---0---0---0---0-----0~|
E|-----------------------|

e|---------------------------------------------------------|
B|*0h1-0-1-0-----------------0-------0--------------------*|
G|----2----------0-----0---0---2-0-2-----2-----2-----2-----|(repeat this
D|--------2----0-----0-----------------------2-----2-----2-|riff 2 times)
A|*0---------------------------------------0-----0-----0--*|
E|-----------3-----2-----0---0---------0-------------------|

e|--------------------------0--------------------------------|
B|------0---0-1-----1-----3-----3-1-3---1-0---------------0--|
G|----2---0-------2-----0-----0---2---------2-0-2-2-0-2-----0|
D|--2---------------------------------2---------2-------2----|
A|0-------------0-----2-----3-------------------------0------|
E|------3-----------------------------------1---0---------3--|

e|---------0---1---2---3---4---5---7-5-------------3-------1-|
B|-1---3-----------------0---0---0---------7-------3-------1-|
G|---0---0---0---2---2---------------------7-------4-------2-|
D|-----------------0-----------------------7-0-------0-------|
A|-0---2---3-----------------------------5-------3-------1---|
E|-------------1-------3---0---0-------5-------3-------1----1|

e|---------------0---------------------0------------------------|
B|---3---------3---3-------3---------3---3-------3--------2p0h2~|
G|---3-------2-------2---2---2-----2-------2---2---2------2-----|
D|---3-0---3-----------3---------4-----------4-------4----2-----|
A|-1-----0---------------------0------------------------0-------|
E|--------------------------------------------------------------|

This was the first song i learned, so this song isn't impossible to learn. Greatest song ever.





Comments


Popular Eric Clapton tabs & chords
Wonderful Tonight 3 Bass Tabs
Better Make It Through Today Chords
Over The Rainbow Chords
Tears In Heaven 7 Chords
Cocain 2 Tabs
Kind Hearted Women Tabs
Sunshine Of Your Love 1 Tabs
Wonderful Tonight 6 Tabs
Let It Grow Ukulele
No Alibis Ukulele


Song lyrics



↑ Back to top | Tablatures and chords are parodies/interpretations of the original songs. You may use it for private study, scholarship, research or language learning purposes only
© 2014 AZChords.com Contact us | Privacy policy | DMCA | Add/correct tabs | Request tabs | Top 50 tabs