» » »

Eric Clapton, Bell Bottom Blues Tabs (ver.1)

Artists:  A B C D E F G H I J K L M N O P Q R S T U V W X Y Z # 

Bell Bottom Blues Tabs (ver.1)

Eric Clapton Tabs
 Rating:
4.8/5 (20 votes)
Bell Bottom Blues lessons Tabs too difficult? Try these video lessons and learn fast
1
                                                              Bell Bottom Blues
                                            Derek And The Dominos
                                      Layla And Other Assorted Love Songs

 E/G#=[4024xx]

Intro:
|--------------------------------------------------------------------------------------------|
|--------0------1----------------------------------------------------------------------------|
|------------------0------------1-------------2------------------------------------------4---|
|------0---0h2--------2------2-----2-------2-----2---------2------------3-------------5----5-|
|-2--3--------------------2-------------0---------------3-----3------3-----3-------5---------|
|----------------------------------------------------3------------1-----------1/3------------|

|-13--------------10-----|
|----13-11-----------12--|
|----------10b12---------|
|------------------------|
|------------------------|
|------------------------|

(From "Bell Bottoms Blues, you make me cry...")
 Guitar I
|----------------------------------------------------------------------|
|----------------------------------------------------------------------|
|-------0-----------1-----------2---------------------------------4----|
|----2-----2-----2-----2-----2-----2--------2-----------3------------5-|
|-3-----------2-----------0--------------3-----3-----3---------5-------|
|-------------------------------------3-----------1--------1/3---------|

Guitar II
|---------------------------------13--------------10-----|
|-------------8----------------------13-11-----------12--|
|-----5--7b9----9b7p5--5-------------------10b12---------|
|-5-7----------------------------------------------------|
|--------------------------------------------------------|
|--------------------------------------------------------|


(From "If I could choose a place to die...")
 Guitar I
|----------------------------------------------------------------------|
|----------------------------------------------------------------------|
|-------0-----------1-----------2---------------------------------4----|
|----2-----2-----2-----2-----2-----2--------2-----------3------------5-|
|-3-----------2-----------0--------------3-----3-----3---------5-------|
|-------------------------------------3-----------1--------1/3---------|

 Guitar II
|-15b17---15--15b17b15------------------------5-5-|
|----------------------15b17--13----------5-8-----|
|-------------------------------------------------|
|-------------------------------------------------|
|-------------------------------------------------|
|-------------------------------------------------|



       A                    E/G#             F#m           D   E
(From " Do you wanna see me crawl across the floor for you?     ")
|-15b17---17---17---17b15-12---------15----------|
|----------------------------15b17------17b15-13-|
|------------------------------------------------|
|------------------------------------------------|
|------------------------------------------------|
|------------------------------------------------|

       A                       E/G#               Fm   D   E
(From " Do you want to hear me beg me to take you back?     ")
|-17-20-20b22--20----17----17---17---17\--|
|-----------------------20----------------|
|-----------------------------------------|
|-----------------------------------------|
|-----------------------------------------|
|-----------------------------------------|

       A               Amaj7    A7  D                E
(From "I don't want to fade away    give me one more day please")
|-10------10------10------10------10-----10-----6--6\----------6--6------------------8----10\-|
|-----11------11------10------10------9------9---------8--8\---------8--8--8/11-11-8---11-----|
|---------------------------------------------------------------------------------------------|
|---------------------------------------------------------------------------------------------|
|---------------------------------------------------------------------------------------------|
|---------------------------------------------------------------------------------------------|

|-13--------------10-----|
|----13-11-----------12--|
|----------10b12---------|
|------------------------|
|------------------------|
|------------------------|
 

(From " It's all wrong,  but its alright")
|---------------------15----15b17b15----12-------|
|-15b17-----13--15b17----------------------15-13-|
|------------------------------------------------|
|------------------------------------------------|
|------------------------------------------------|
|------------------------------------------------|

|-13--------------10-----|
|----13-11-----------12--|
|----------10b12---------|
|------------------------|
|------------------------|
|------------------------|

(From "Once I was strong...")
|-----------------------------------------|
|-10h13p10-----------------------8--------|
|-----------9h11p9---------7b9------9b7-5-|
|-------------------7h10p7----------------|
|-----------------------------------------|
|-----------------------------------------|

(From "Do you want to see me crawl across the floor for you")
|-15b17--17b15b17---17--17--17--17--17--19--19b21--17-|
|-----------------------------------------------------|
|-----------------------------------------------------|
|-----------------------------------------------------|
|-----------------------------------------------------|
|-----------------------------------------------------|

(From " Do you want to hear me beg me to take you back?")
|-17-20-20b22--20----17----17---17---17\--|
|-----------------------20----------------|
|-----------------------------------------|
|-----------------------------------------|
|-----------------------------------------|
|-----------------------------------------|

(From "I don't want to fade away...")
|-10------10------10------10------10-----10-----6--6\----------6--6------------------8----10\-|
|-----11------11------10------10------9------9---------8--8\---------8--8--8/11-11-8---11-----|
|---------------------------------------------------------------------------------------------|
|---------------------------------------------------------------------------------------------|
|---------------------------------------------------------------------------------------------|
|---------------------------------------------------------------------------------------------|

(From "I don't want to fade away...")
|-10------10------10------10------10-----10-----6--6\----------6--6------------------8----10\-|
|-----11------11------10------10------9------9---------8--8\---------8--8--8/11-11-8---11-----|
|---------------------------------------------------------------------------------------------|
|---------------------------------------------------------------------------------------------|
|---------------------------------------------------------------------------------------------|
|---------------------------------------------------------------------------------------------|

|-13--------------10-----|
|----13-11-----------12--|
|----------10b12---------|
|------------------------|
|------------------------|
|------------------------|


Guitar Solo:
|-----------------------------15b17--15------------------------15b17---b15---------------|
|-12--13--15--15b17-------13-------------15b17b17-13-------13----------------15b17b15-13-|
|----------------------------------------------------------------------------------------|
|----------------------------------------------------------------------------------------|
|----------------------------------------------------------------------------------------|
|----------------------------------------------------------------------------------------|

|----------------------------------------------------|---------------------------------------------|
|----------------------------------------------------|-------13-----15b17b15b17~-13-15-13-13-15b17-|
|-12h14-12-------------------------------------------|-12h14----14---------------------------------|
|-----------12\10---12p10-------12b14b12--10---12-12-|---------------------------------------------|
|-------------------------12-------------------------|---------------------------------------------|
|----------------------------------------------------|---------------------------------------------|

|-15b17--12--------------------------------------|
|--------------15b17-13-13---13-15-13---15-15-15-|
|------------------------------------------------|
|------------------------------------------------|
|------------------------------------------------|
|------------------------------------------------|

(From "Do you want to see me crawl across the floor for you")
|-------------------------------------|
|-8b10--10--10---10b8-5-------8-------|
|-----------------------7b9-----9b7---|
|-----------------------------------7-|
|-------------------------------------|
|-------------------------------------|

(From "I don't want to fade away...")
|-10------10------10------10------10-----10-----6--6\----------6--6------------------8----10\-|
|-----11------11------10------10------9------9---------8--8\---------8--8--8/11-11-8---11-----|
|---------------------------------------------------------------------------------------------|
|---------------------------------------------------------------------------------------------|
|---------------------------------------------------------------------------------------------|
|---------------------------------------------------------------------------------------------|

(From "I don't want to fade away...")
|-10------10------10------10------10-----10-----6--6\----------6--6------------------8----10\-|
|-----11------11------10------10------9------9---------8--8\---------8--8--8/11-11-8---11-----|
|---------------------------------------------------------------------------------------------|
|---------------------------------------------------------------------------------------------|
|---------------------------------------------------------------------------------------------|
|---------------------------------------------------------------------------------------------|

|-13--------------10-----|
|----13-11-----------12--|
|----------10b12---------|
|------------------------|
|------------------------|
|------------------------|

(From "Bell bottom blues, don't say goodbye")
|-15b17----12---------15------------------|
|--------------15b17------17b15--13-------|
|------------------------------------14---|
|-----------------------------------------|
|-----------------------------------------|
|-----------------------------------------|

|-13--------------10-------------------------|
|----13-11-----------12----------------------|
|----------10b12-----------------------------|
|-------------------------------11h13p11---9-|
|--------------------------------------------|
|--------------------------------------------|

(From "And if we do, don't be surprised")
|-15b17----------------------|
|----------------15b17b15-13-|
|----------------------------|
|----------------------------|
|----------------------------|
|----------------------------|

(From "Do you want to see me crawl across the floor for you")
|-17-20-20b22--20b22--20b22--20b22--17-17-----17-17-|
|-----------------------------------------/20-------|
|---------------------------------------------------|
|---------------------------------------------------|
|---------------------------------------------------|
|---------------------------------------------------|

(From " Do you want to hear me beg me to take you back?")
|-17-20-20b22--20----17----17---17---17\--|
|-----------------------20----------------|
|-----------------------------------------|
|-----------------------------------------|
|-----------------------------------------|
|-----------------------------------------|

(From "I don't want to fade away...")
|-10------10------10------10------10-----10-----6--6\----------6--6------------------8----10\-|
|-----11------11------10------10------9------9---------8--8\---------8--8--8/11-11-8---11-----|
|---------------------------------------------------------------------------------------------|
|---------------------------------------------------------------------------------------------|
|---------------------------------------------------------------------------------------------|
|---------------------------------------------------------------------------------------------|

(From "I don't want to fade away...")
|-10------10------10------10------10-----10-----6--6\----------6--6------------------8----10\-|
|-----11------11------10------10------9------9---------8--8\---------8--8--8/11-11-8---11-----|
|---------------------------------------------------------------------------------------------|
|---------------------------------------------------------------------------------------------|
|---------------------------------------------------------------------------------------------|
|---------------------------------------------------------------------------------------------|

(From "I don't want to fade away...")
|-10------10------10------10------10-----10-----6--6\----------6--6------------------8----10\-|
|-----11------11------10------10------9------9---------8--8\---------8--8--8/11-11-8---11-----|
|---------------------------------------------------------------------------------------------|
|---------------------------------------------------------------------------------------------|
|---------------------------------------------------------------------------------------------|
|---------------------------------------------------------------------------------------------|

(From "I don't want to fade away...")
|-10------10------10------10------10-----10-----6--6\----------6--6------------------8----10\-|
|-----11------11------10------10------9------9---------8--8\---------8--8--8/11-11-8---11-----|
|---------------------------------------------------------------------------------------------|
|---------------------------------------------------------------------------------------------|
|---------------------------------------------------------------------------------------------|
|---------------------------------------------------------------------------------------------|

(From "I don't want to fade away...")
|-10------10------10------10------10-----10-----6--6\----------6--6------------------8----10\-|
|-----11------11------10------10------9------9---------8--8\---------8--8--8/11-11-8---11-----|
|---------------------------------------------------------------------------------------------|
|---------------------------------------------------------------------------------------------|
|---------------------------------------------------------------------------------------------|
|---------------------------------------------------------------------------------------------|

(From "I don't want to fade away...")
|-10------10------10------10------10-----10-----6--6\----------6--6------------------8----10\-|
|-----11------11------10------10------9------9---------8--8\---------8--8--8/11-11-8---11-----|
|---------------------------------------------------------------------------------------------|
|---------------------------------------------------------------------------------------------|
|---------------------------------------------------------------------------------------------|
|---------------------------------------------------------------------------------------------|

Outro:
|-13--------------10-----|
|----13-11-----------12--|
|----------10b12---------|
|------------------------|
|------------------------|
|------------------------|
            
Submit corrections

comments powered by Disqus
↑ Back to top | Eric Clapton Tabs for Bell Bottom Blues. Lyrics for acoustic guitar and electric guitar. 1 Tablatures and chords are parodies/interpretations of the original songs. You may use it for private study, scholarship, research or language learning purposes only