» » »

Eric Clapton, Bad Love Tabs (ver.1)

Artists:  A B C D E F G H I J K L M N O P Q R S T U V W X Y Z # 

Bad Love Tabs (ver.1)

Eric Clapton Tabs
Rating:
4/5 (9 votes)
Hard to play? Try these video lessons and learn fast.
                
Difficulty : Novice/Intermidiate
Tuning:Standard

Symbols:
/ Slide Up
\ Slide Down
h Hammer On
p Pull Off

e|-------------------------------------------------------------------------|
B|-------------------------------------------------------------------------|
G|--------------5--------------------------------5-------------------------|
D|---------5/7-----5-------3--5--3---------5/7------5--3--2----0h2p0-------|
A|---3--5-------------3h5------------3--5----------------------------------|
E|-------------------------------------------------------------------------|

                                        (Ending not into chords)

e|-------------------------------------------------------------------------|
B|-------------------------------------------------------------------------|
G|--------------5--------------------------------5--7----------------------|
D|---------5/7-----5-------3--5--3---------5/7---------5--3--2---0h2p0-----|
A|---3--5-------------3h5------------3--5----------------------------------|
E|-------------------------------------------------------------------------|


                                    (Alternate ending into chords)
                                                                   Bm
e|------------------------------------------------------------------2-------|
B|------------------------------------------------------------------2--3----|
G|--------------5--------------------------------5--7---------------2----4--|
D|---------5/7-----5-------3--5--3---------5/7---------5--3--2------2----4--|
A|---3--5-------------3h5------------3--5---------------------------2-------|
E|--------------------------------------------------------------------------|

Higher up part

e|--------------------------------------------------------------------------|
B|----------------13-------------------------------------13-----------------|
G|---------12/14------12----------10h12p10--------12/14------12-------------|
D|--10-12------------------10h12-------------10-----------------10--9-7h9p7-|
A|--------------------------------------------------------------------------|
E|--------------------------------------------------------------------------|

                                           (Ending not into chords)

e|---------------------------------------------------------------------------|
B|-------------13-------------------------------------13--15-----------------|
G|------12/14------12----------10h12p10-------- 12/14--------12--10--9-7h9p7-|
D|-10-12------------------10h12-------------10-12----------------------------|
A|---------------------------------------------------------------------------|
E|---------------------------------------------------------------------------|

                                             (Alternate ending into chords)
                                                                       Bm
e|---------------------------------------------------------------------2-----|
B|-------------13-------------------------------------13-15------------2-3---|
G|------12/14------12----------10h12p10-------- 12/14-------12-10-9-7--2---4-|
D|-10-12------------------10h12-------------10-12----------------------2---4-|
A|---------------------------------------------------------------------2-----|
E|---------------------------------------------------------------------------|


Chords:
PART 1
Bm                   E                 A
Oh, what a feeling I get when I'm with you
Bm                     E              A
You take my heart into everything you do
       Bb       C           Am     Bb
And it makes me sad for the lonely people
Bb            C           Dm
I walked that road for so long
      Bb        C              Am    Bb
Now I know that I'm one of the lucky people
Bb           C         G
Your love is making me strong

REFRAIN
      Dm    C      Gsus
Had enough    bad love
       Dm          C            Gsus
I need something I can be proud of
     Dm    C       Gsus
Had enough    bad love
Dm   C        Bb
  No more bad love

SOLO (same chords as Refrain)

PART 2
Bm                       E                A
   And now I see that my life has been so blue
Bm                           E              A
   With all the heartaches I had till I met you
        Bb      C              Am    Bb
But I'm glad to say now that's all behind me
Bb         C          Dm
  With you here by my side
            Bb      C        Am   Bb
And there's no more memories to remind me
Bb                C        G
   Your love will keep me alive

(ive made it easieyer by puting a G at the end of the line in stead of a Gm but if you 
that then play it)


PLEASE RATE it as this is my first ever tab and if i do well i will tab some more thaks alot.

joerocks1991
            

comments powered by Disqus
↑ Back to top | Eric Clapton Tabs for Bad Love. Lyrics for acoustic guitar and electric guitar. Tablatures and chords are parodies/interpretations of the original songs. You may use it for private study, scholarship, research or language learning purposes only