» » »

Eraserheads, Kananete Tabs (ver.1)

Artists:  A B C D E F G H I J K L M N O P Q R S T U V W X Y Z # 

Kananete Tabs (ver.1)

Eraserheads Tabs
Rating:
0/5 (0 votes)
Hard to play? Try these video lessons and learn fast.
                
Intro: (guitar 1)

E|------------------------|
B|------------------------|
G|------------------------|
D|------------------------|
A|--5—-6—-5—-6----5-6-----| 4x
E|--3—-4—-3—-4----3-4-----|

(guitar 2)
E|----4-3-1----------------|
B|----------4-2-1-1h2p1----|
G|-------------------------|
D|-------------------------|
A|-------------------------|
E|-------------------------|

E|------------------------|
B|------------------------|
G|------------------------|
D|------------------------|
A|--5—-6—-5—-6----5-6-----| 
E|--3—-4—-3—-4----3-4-----|

Refrain: 

(guitar 1)
E|----4-3-1----------------|
B|----------4-2-1-1h2p1----|
G|-------------------------|
D|-------------------------|
A|-------------------------|
E|-------------------------|
      Sino sino sino ba?

(guitar 2)
E|---------------------------------|
B|---------------------------------|
G|----6----------------------------|
D|----6------------------6---------|
A|----4------------------6---------|
E|-----------------------4---------|
     Sino sino sino ba?

(guitar 1)
E|----4-3-1----------------|
B|----------4-2-1-1h2p1----|
G|-------------------------|
D|-------------------------|
A|-------------------------|
E|-------------------------|
      Ang nagsabing tao ka?

(guitar 2)
E|---------------------------------|
B|---------------------------------|
G|----6----------------------------|
D|----6------------------6---------|
A|----4------------------6---------|
E|-----------------------4---------|
      Ang nagsabing tao ka?

(guitar 1)
E|----4-3-1----------------|
B|----------4-2-1-1h2p1----|
G|-------------------------|
D|-------------------------|
A|-------------------------|
E|-------------------------|
      Sino sino sino ba?

(guitar 2)
E|---------------------------------|
B|---------------------------------|
G|----6----------------------------|
D|----6------------------6---------|
A|----4------------------6---------|
E|-----------------------4---------|
    Ang pumatol sa tanga?

Verse:

E|---------------------------|
B|----------------------5----|
G|----------------------5----|
D|----5---6----5---6----3----| 2x
A|----5---6----5---6---------|
E|----3---4----3---4---------|

Repeat refrain

Verse 2:
(do verse chords)

Repeat refrain

Outro:

(guitar 1)
E|----4-3-1----------------|
B|----------4-2-1----------|
G|-------------------------|
D|-------------------------| 6x
A|-------------------------|
E|-------------------------|
     Sino sino sino 

(guitar 2)
E|-----------------|
B|-----------------|
G|----6------------|
D|----6------------|
A|----4------------| 6x
E|-----------------|
    Sino sino sino

E|--------------------|
B|--------------------|
G|--------------------|
D|--------6-----------|
A|--------6-----------|
E|--------4-----------|
   Sino ba
            

comments powered by Disqus
↑ Back to top | Eraserheads Tabs for Kananete. Lyrics for acoustic guitar and electric guitar. Tablatures and chords are parodies/interpretations of the original songs. You may use it for private study, scholarship, research or language learning purposes only