» » »

Garden Of Growing Hearts Tabs (ver.1)

Artists:  A B C D E F G H I J K L M N O P Q R S T U V W X Y Z # 

Garden Of Growing Hearts Tabs (ver.1)

Empty Trash
Rating:
5/5 (1 vote)

Hard to play? Try these video lessons and learn fast.
                (Intro)
PM = Palm Mute

Intro: (Guitar 1) clean 
e|-----------------------------------------------------------|
B|-----------------------------------------------------------|
G|-----------------------------------------------------------|
D|-----9-----9--------5-----5--------2-----2--------2-----2--|2x
A|-7-7---7-7----3-3-3---3-3----0-0-0---0-0----0-0-0---0-0----|
E|-----------------------------------------------------------|
PM . .   . .    . . .   . .    . . .   . .    . . .   . . 

 (Guitar 2) clean 
e|--------------------------------------------------------------------------------|
B|--------------------------------------------------------------------------------|
G|-----9-----9-----------16-------16-----------12-------12-----------12-------12--|
D|-7-7---7-7----14-14-14----14-14-----10-10-10----10-10-----10-10-10----10-10-----|2x
A|--------------------------------------------------------------------------------|
E|--------------------------------------------------------------------------------|
PM . .   . .    .. .. ..    .. ..     .. .. ..    .. ..     .. .. ..    .. ..

Der Rest kommt später.
Have fun !!!!!!!
            
Hard to play? Try these video lessons and learn fast. | Correct




comments powered by Disqus
↑ Back to top | Tablatures and chords are parodies/interpretations of the original songs. You may use it for private study, scholarship, research or language learning purposes only