>
 >
Mexican Wrestler

Mexican Wrestler Chords

Emma Roberts - Mexican Wrestler chords, tabs, tablatures, lyrics

Guitar lessons | Add/correct | Request | Top 50 tabs Artists:  A B C D E F G H I J K L M N O P Q R S T U V W X Y Z 0-9

Mexican Wrestler Chords – Emma Roberts

CD, Sheet music, Poster

Do you like Mexican Wrestler? Share with your friends now
ChordsChords v2TabsUkulele
You have to play the chords like this:
 G                                   D
 
E|-----------3----------------------|-----------2----------------------|
B|--------------3-------------------|--------3-----3-------------------|
G|------------------0---------------|-----2-----------2----------------|
D|--------0-------------------------|--0-------------------------------|
A|-----2----------------------------|----------------------------------|
E|--3-------------------------------|----------------------------------|


 F                                   C
 
E|--------------1-------------------|-----------0----------------------|
B|-----------1-----1----------------|--------------1-------------------|
G|--------2-----------2-------------|--------0---------0---------------|
D|-----3----------------------------|-----2----------------------------|
A|----------------------------------|--3-------------------------------|
E|----------------------------------|----------------------------------|


 A                                    Am
 
E|-------------0--------------------|--------------0------------------|
B|----------------1-----------------|-----------1-----1---------------|
G|----------2---------2-------------|--------2-----------2------------|
D|------2---------------------------|-----2---------------------------|
A|--0-------------------------------|---------------------------------|
E|----------------------------------|---------------------------------|



 
Intro
G D F C x2

Verse1
G           D         F        C
Sometimes I wish that I was an angel
G          D         F          C 
A fallen angel who visits your dreams 
G            D      F              C
And in those dreams I'd blow you a message
G         D          F      F
that says You really want me

Verse2
G          D            F           C
Sometimes I wish that I was a wrestler
G             D         F          C
a Mexican wrestler In a red vinyl mask 
G           D            F          C
and I might grab you and body slam you
G              D          F         F
And maybe cause physical harm

Pre-Chorus
Am          Am                  D           D
But when we would land I might take pity on you
Am                 Am           D              
I could crack all your ribs but I cant break your heart

Chorus
G         D          C   C
You will never love me
G          D          C    C
And this I cant forgive
G             D           C   C
That you will never love me
G            D       C    C
As long as I will live 

Solo (in backround a violin)
G D C C
G D C C

Verse3
G            D        F         C
Sometimes I wish that I was a beauty 
G            D          F     C
A beautiful girl, the popular one
G                 D        F                    C
And I'd turn your head and your friends would love me
G                            D      F         F
And I could afford to play hard to get

Pre-Chorus
Am          Am           D           D
We'd go to parties and you'd show me off
Am          Am           D           D
Then I'd go out with your best friend

Chorus/Outro
G        D           C   C
You will never love me
G          D          C   C
And this I cant forgive
G           D           C   C
And It will always bug me
G          D         C   C
As long as I will live
G        D           C   C
You will never love me
G            D       C   C
Why should I even care
G             D            C   C
It's not that your so special
G               D         C   C
You're just the cross I bear
G        D           C   C
You will never love me
  G        D           C   C
 (You will never love me)
G          D          C   C
And this I cant forgive
  G          D          C   C
 (And this I cant forgive)
G        D           C   C
You will never love me
  G           D           C   C
 (And it will always bug me)
G          D          C   C
And this I cant forgive
  G          D         C   C
 (As long as I will live)

Fading out
G        D           C   C
You will never love me
  G        D           C   C
 (You will never love me)
  G          D          C   C
 (And this I cant forgive)
  G           D           C   C
 (And it will always bug me)





Comments


Popular Emma Roberts tabs & chords
I Wanna Be Chords
Mexican Werstler Chords
Mexican Wrestler 1 Chords
Dummy Tabs
I Wanna Be Tabs
Mexican Wrestler Tabs
This Is Me Tabs
Dummy Ukulele
Mexican Werstler Ukulele
Say Goodbye To Jrhigh Ukulele


Song lyrics



↑ Back to top | Tablatures and chords are parodies/interpretations of the original songs. You may use it for private study, scholarship, research or language learning purposes only
© 2014 AZChords.com Contact us | Privacy policy | DMCA | Add/correct tabs | Request tabs | Top 50 tabs