» » »

Love The Way You Lie Tabs (ver.1)

Artists:  A B C D E F G H I J K L M N O P Q R S T U V W X Y Z # 

Love The Way You Lie Tabs (ver.1)

Eminem
Rating:
0/5 (0 votes)

Hard to play? Try these video lessons and learn fast.
                Eminem - Love The Way You Lie ft. Rihanna


-------------------------------------------

Chords for this song are played in standard tuning, capo on 1st fret.

All are full barre chords to preserve some of the high ringing notes.  Some of the 
points of the cords are that the 1st and 2nd chord have the same ringing high notes, and the 
and 4th also preserve this, this is why you play with proper posture.


There are 4 chords to this song, for ease of tabbing, put the CAPO on the 1st fret:


  F#min  Dmaj Amaj  Esus4
e|--9-----5-----5-----8---|
b|-10-----7-----5----10---|
g|-11-----7-----6-----9---|
D|-11-----7-----7-----9---|
A|--9-----5-----7-----7---|
E|--------------5---------|

So technically you CAN uncapo the 1st fret, and do:

  Gmin  D#maj  Bbmaj Fsus4
e|-10-----6-----6------9---|
b|-11-----8-----6-----11---|
g|-12-----8-----7-----10---|
D|-12-----8-----8-----10---|
A|-10-----6-----8------8---|
E|--------------6----------|


Chord progression is:
--------------------------------------------------

Rythem is numbered:

1...    2...    3...    4...

                   Just gonna


   1...    2...    3...    4...    1...    2...    3...    4...
   [F#min]                         [Dmaj]
   STAND there   n watch  me    bu-rn           But that's all

e|--9---------------9-------------|-5-------------(5)-------------|
b|-10--------------10-------------|-7--------------7--------------|
g|-11----------11--11----------11-|-7-----------7--7-----------7--|
D|-11------11--------------11-----|-7-------7--------------7------|
A|--9---9---------------9---------|-5---5--------------5----------|
E|--------------------------------|-------------------------------|

   1...   2...    3...    4...    1...    2...    3...    4...
   [Amaj]                         [Esus4]
   right cause I like The way it hurts               Just gonna


e|--6--------------(6)------------|-9-------------(9)-------------|
b|--6---------------6-------------|10-------------10--------------|
g|--7-----------7---7-----------7-|-9-----------9--9-----------9--|
D|--8-------8-------8-------8-----|-9-------9------9-------9------|
A|--8---8---------------8---------|-7---7--------------7----------|
E|--6-----------------------------|-------------------------------|

   1...   2...    3...    4...    1...    2...    3...    4...
   [F#min]                        [Dmaj]
   stand  there  n HE-AR  me    cry            But that's all


e|--9---------------9-------------|-5-------------(5)-------------|
b|-10--------------10-------------|-7--------------7--------------|
g|-11----------11--11----------11-|-7-----------7--7-----------7--|
D|-11------11--------------11-----|-7-------7--------------7------|
A|--9---9---------------9---------|-5---5--------------5----------|
E|--------------------------------|-------------------------------|

   1...   2...    3...    4...    1...    2...    3...    4...      1...
   [Amaj]                         [Esus4]                          [F#min]
   Right Because iLove the way you lie         I Love the way you   Lie


e|--6--------------(6)------------|-9-------------(9)-------------|-9---|
b|--6---------------6-------------|10-------------10--------------|10---|
g|--7-----------7---7-----------7-|-9-----------9--9-----------9--|11---|
D|--8-------8-------8-------8-----|-9-------9------9-------9------|11---|
A|--8---8---------------8---------|-7---7--------------7----------|-9---|
E|--6-----------------------------|-------------------------------|-----|
            
Hard to play? Try these video lessons and learn fast. | Correct




comments powered by Disqus
↑ Back to top | Tablatures and chords are parodies/interpretations of the original songs. You may use it for private study, scholarship, research or language learning purposes only