» » »

Emil Bulls, Style School Tabs (ver.1)

Artists:  A B C D E F G H I J K L M N O P Q R S T U V W X Y Z # 

Style School Tabs (ver.1)

Emil Bulls Tabs
Rating:
5/5 (1 vote)
Style School lessons Tabs too difficult? Try these video lessons and learn fast
                Emil Bulls - Style School (Angel delivery service)


8/25/01



Tuning: 3 steps down to C#,F#,B,e,g#,c#



Note:
. - stop sound/break
p.m. - palm muted


Intro/vers:

c#:----------------------------------------------------
g#:-----------------------------------------------------
e :----------------------------------------------------
B :----------------------------------------------------
F#:--077.--77.--05.-05.-------------------------------
C#:---------------------03----------------------------


prechorus:

c#:----------------------------------------------------
g#:-----------------------------------------------------
e :----------------------------------------------------
B :---999--9-777--7-------------------------------------
F#:---777--7-555--5-----------------------------------
C#:---777--7-555--5----------------------------------

chorus:

c#:------------------------0----0---0---0-----------------
g#:------------------------0----0---0---0------------------
e :------------------------0----0---0---0-----------------
B :----55555555-99999999-22--22---22--22-----------------
F#:----55555555-99999999-22--22---22--22------------
C#:----33333333-77777777-00--00---00--00--------------

Interlude:



c#:-----------(12)---/---------------(12)-------------
g#:------------------/-----------------------------------
e :------------------/----------------------------------
B :------------------/--9-99-------------------------------
F#:------------------/--7-77------------------------------
C#:----0----0--------/--7-77-00----0------------------
p.m.:  __   __               __    __           !

(x) - harmonic
            
Submit corrections

comments powered by Disqus
↑ Back to top | Emil Bulls Tabs for Style School. Lyrics for acoustic guitar and electric guitar. Tablatures and chords are parodies/interpretations of the original songs. You may use it for private study, scholarship, research or language learning purposes only