>
 >
Leaving You With This

Leaving You With This Guitar Tabs

Emil Bulls - Leaving You With This chords, tabs, tablatures, lyrics

Guitar lessons | Add/correct | Request | Top 50 tabs Artists:  A B C D E F G H I J K L M N O P Q R S T U V W X Y Z 0-9

Leaving You With This Guitar Tabs – Emil Bulls

CD, Sheet music, Poster

Do you like Leaving You With This? Share with your friends now
Bass TabsTabsTabs v2

Please- choose FULL SCREEN (for better view).


6-string guitar, tuned down- A,D,G,c,e,b


intro

b------------------------------------------------------------------------------------------
e------------------------------------------------------------------------------------------
c---11--11-11-11--11-11-11-11-11-11-11-------11--11-11-11--11-11-11-11-11-11-11------------   x2
G------------------------------------------------------------------------------------------
D------------------------------------------------------------------------------------------
A------------------------------------------------------------------------------------------
          


Riff 1: guitar 1: intro,

        guitar 2:

b------------------------------------------------------------------------------------------
e------------------------------------------------------------------------------------------
c------------------------------------------------------------------------------------------   x2
G-----------------------7-777-77-77-77-7----9-999-99-99-99-9-------------------------------
D---4-444-44-44-44-4----5-555-55-55-55-5----7-777-77-77-77-7---4444-----44-----444---------
A---2-222-22-22-22-2-------------------------------------------2222-3\2-22-3\2-222---------

								(second time,this part is heavier)


riff 2: both guitars:

b-----------------------
e-----------------------
c-----------------------   x4
G-----------------------
D---4444-----44-----444--
A---2222-3\2-22-3\2-222---

riff 3: same as intro;



riff 4: same as riff 1 which comes into riff 2;



riff 5: both guitars;

b-----------------------------------------------------------
e-----------------------------------------------------------
c-----------------------------------------------------------  x4
G----------------------------7-77-7777-----------77---------
D---4-4-44-4----7-77-7777---x5-55-5555---9-99---x55-55------
A---2-2-22-2--xx5-55-5555---------------x7-77-------33------



outro: same as intro;


Structure: 
intro;
riff 1;
riff 2;
riff 3;
riff 4;
riff 5;
riff 3;
riff 4;
riff 5;
outro;





Comments


Popular Emil Bulls tabs & chords
Leaving You With This Bass Tabs
Newborn Chords
These Are The Days Chords
Friday Night 1 Tabs
Here Comes The Fire Tabs
Leaving You With This 1 Tabs
Man Overboard! Tabs
Nothing In This World Tabs
Friday Night Ukulele
Not Tonight Josephine Ukulele


Song lyrics



↑ Back to top | Tablatures and chords are parodies/interpretations of the original songs. You may use it for private study, scholarship, research or language learning purposes only
© 2014 AZChords.com Contact us | Privacy policy | DMCA | Add/correct tabs | Request tabs | Top 50 tabs