» » »

Emil Bulls, Friday Night Tabs (ver.3)

Artists:  A B C D E F G H I J K L M N O P Q R S T U V W X Y Z # 

Friday Night Tabs (ver.3)

Emil Bulls Tabs
 Rating:
4/5 (4 votes)
Friday Night lessons Tabs too difficult? Try these video lessons and learn fast
                Band: Emil Bulls
Tuning: Standard E (Eadgbe), played on acoustic/steel string guitar


Verse 1:

e|-----------------|------------------|
b|-----------------|------------------|
g|------6----------|------2-----------|  x2
d|----7----7---7---|----4----4---4----|  
a|-----------7-----|-----------4------|
E|-5---------------|-2----------------|

Verse 2:

e|-----------------|-----------------|----------------|---------------|
b|-----------------|-----------------|----------------|---------------|
g|------6----------|------6----------|------2---------|-----2---------| x4
d|----7----7---7---|----7----7---7---|----4----4---4--|---4----4---4--|  
a|-----------7-----|-----------7-----|-----------4----|----------4----|
E|-5---------------|-5---------------|-2--------------|-2-------------|

Bridge:

e|-----------------|------------------|-----------------|----------------|
b|-----------------|------------------|-----------5~----|---------5------|
g|----------1~-----|----------1-------|-------6---------|-----6-----6----| 
d|------2----------|------2-----2-----|-----6---6-------|---6---6-----6--|  
a|----2---2--------|----2---2------2--|--4--------------|-4--------------|
E|-0---------------|-0----------------|-----------------|----------------|

e|-----------------|------------------|-----------------|----------------|
b|------0----------|------0-----------|---------0-------|-0~-----0~------|
g|--------6--------|--------6---------|-----2-----2-----|----2------2--2-| 
d|----7-----7~-----|----7-----7~------|---2---2-----2---|------2------2--|  
a|-5---------------|-5------------5~--|-0---------------|----------------|
E|-----------------|------------------|-----------------|----------------|

Chorus:

e|-----------------|------------------|----------------|---------------|
b|-----------------|------------------|----------------|---------------|
g|------6----------|------6-----6-6---|------2---------|-----2----2-2--| x4
d|----7----7---7---|----7----7--7-7---|----4----4---4--|---4----4-4-4--|  
a|-----------7-----|---------7--7-7---|-----------4----|--------4-4-4--|
E|-5---------------|-5-------5--5-5---|-2--------------|-2------2-2-2--|


Verse 2 (x1)
Bridge (x1)
Chorus 2: (listen for strumming pattern)


e|-----------------|------------------|-----------------|----------------|
b|-----------------|------------------|-----------------|----------------|
g|-6---------------|-2----------------|-6---------------|-2--------------| 
d|-7---------------|-4----------------|-7---------------|-4--------------|  
a|-7---------------|-4----------------|-7---------------|-4--------------|
E|-5---------------|-2----------------|-5---------------|-2--------------|

Verse 2 (x1)
Part B:




I’ll get you...

e|-----------------|------------------|-----------------|----------------|
b|-----(0~)--------|------------------|-----------------|-5----several---|
g|----1~-----------|----4~------------|----6~-----------|-6----times^^---| 
d|---2~------------|---6~-------------|---7~------------|-7--------------|  
a|--2~-------------|--6~--------------|--7~-------------|-7--------------|
E|-0~--------------|-4~---------------|-5~--------------|----------------|

Chorus 2 (1x)
Chorus 3 (2x):
 
e|-----------------|------------------|-----------------|----------------|
b|-----------------|------------------|-----------------|----------------|
g|-6---------------|-4----------------|-2---------------|-4--------------| 
d|-7---------------|-6----------------|-4---------------|-6--------------|  
a|-7---------------|-6----------------|-4---------------|-6--------------|
e|-5---------------|-4----------------|-2---------------|-4--------------|

Verse 2 (1x), ends on:

e|-----------------|------------------|-----------------|----------------|
b|-----5~----------|------------------|-----------------|----------------|
g|----6~-----------|------------------|-----------------|----------------| 
d|---7~------------|------------------|-----------------|----------------|  
a|--7~-------------|------------------|-----------------|----------------|
e|-5~--------------|------------------|-----------------|----------------|

not quite sure if everything’s correct, but this sounds pretty good to me :) enjoy!!!
            
Submit corrections

comments powered by Disqus
↑ Back to top | Emil Bulls Tabs for Friday Night. Lyrics for acoustic guitar and electric guitar. Tablatures and chords are parodies/interpretations of the original songs. You may use it for private study, scholarship, research or language learning purposes only