>
 >
Broken Promises

Broken Promises Bass Tabs

Element Eighty - Broken Promises chords, tabs, tablatures, lyrics

Guitar lessons | Add/correct | Request | Top 50 tabs Artists:  A B C D E F G H I J K L M N O P Q R S T U V W X Y Z 0-9

Broken Promises Bass Tabs – Element Eighty

CD, Sheet music, Poster

Do you like Broken Promises? Share with your friends now
Bass TabsTabsTabs v2Tabs v3Tabs v4Tabs v5
I noticed that the other tab for this song can get a little confusing at times,
so i broke it up into sections so it is now easier to follow.

Element Eighty  Broken Promises

Guitar Intro
Intro
F#||--------------------------|------------------------|--------------------------
C#||--------------------------|------------------------|--------------------------
G#||--------------------------|--------------3---------|--1--1--1--1--1--1-----1--
C#||--0--0--0--0--0--0-----0--|-----0--0--0-------5----|--------------------------

|------------------------|--------------------------|------------------------
|------------------------|--------------------------|------------------------
|-----1--1-----5----1----|--------------------------|--------------3---------
|-----------0------------|--0--0--0--0--0--0-----0--|-----0--0--0-------5----

|--------------------------|-------------------|
|--------------------------|-------BREAK-------|
|--1--1--1--1--1--1-----0--|-------------------|
|--------------------------|-------------------|

Verse 1
--------------------------|--------------------------|
--------------------------|--------------------------|
--------------------------|--------------3--3--------|
--0--0--0--0--0--0-----0--|-----0--0--0--------5--5--|

--------------------------|--------------------------|
--------------------------|--------------------------|
--------------------------|--------------5--5--1--1--|
--8--8--8--8--8--8-----8--|-----8--8--0--------------|

--------------------------|--------------------------|
--------------------------|--------------------------|
--------------------------|--------------3--3--------|
--0--0--0--0--0--0-----0--|-----0--0--0--------5--5--|

--------------------------|--------------------------|
--------------------------|--------------------------|
--------------------------|--------------------------|
--8--8--8--8--8--8--8--8--|--7--7--7--0--3--3--1--3--|

--------------------------|------------------------|--------------------------|
--------------------------|------------------------|--------------------------|
--------------------------|--------------3---------|--1--1--1--1--1--1-----1--|
--0--0--0--0--0--0-----0--|-----0--0--0-------5----|--------------------------|

------------------------|--------------------------|------------------------|
--------------0---------|--------------------------|------------------------|
-----1--1----------1----|--------------------------|--------------3---------|
-----------0------------|--0--0--0--0--0--0-----0--|-----0--0--0-------5----|

--------------------------|--------------------|
--------------------------|--------------------|
--1--1--1--1--1--1--1--0--|--L-----------------|
--------------------------|--------------------|


Chorus
--------------------------|------------------------|--------------------------
--------------------------|------------------------|--------------------------
--------------------------|--------------3---------|--1--1--1--1--1--1-----1--
--0--0--0--0--0--0-----0--|-----0--0--0-------5----|--------------------------

|------------------------|--------------------------|------------------------
|------------------------|--------------------------|------------------------
|-----1--1-----5----1----|--------------------------|--------------3---------
|-----------0------------|--0--0--0--0--0--0-----0--|-----0--0--0-------5----

|--------------------------|--------------------------|--------------------------
|--------------------------|--------------------------|--------------------------
|--1--1--1--1--1--1--1--1--|--0--0--0--0--------------|--------------------------
|--------------------------|--------------3--3--1--3--|--0--0--0--0--0--0-----0--

|------------------------|--------------------------|------------------------
|------------------------|--------------------------|------------------------
|--------------3---------|--1--1--1--1--1--1-----1--|-----1--1-----5----1----
|-----0--0--0-------5----|--------------------------|-----------0------------

|--------------------------|------------------------|--------------------------
|--------------------------|------------------------|--------------------------
|--------------------------|--------------3---------|--1--1--1--1--1--1-----0--
|--0--0--0--0--0--0-----0--|-----0--0--0-------5----|--------------------------

|-------------------|
|-------------------|
|--L----------------|
|-------------------|

Verse 2
--------------------------|--------------------------|
--------------------------|--------------------------|
--------------------------|--------------------------|
--0--0--0--0--0--0-----0--|-----0--0--0--0--0--0--0--|

--------------------------|--------------------------|
--------------------------|--------------------------|
--------------------------|--------------3--3--------|
--0--0--0--0--0--0-----0--|-----0--0--0--------5--5--|

--------------------------|--------------------------|-------------------|
--------------------------|--------------------------|-------------------|
--------------------------|--------------5--5--1--1--|-------------------|
--8--8--8--8--8--8-----8--|-----8--8--0--------------|--0~---------------|

---------------------|-------------------|-------------------------|
---------------------|-------------------|-------------------------|
-----------3~--------|-------------------|-------------------------|
----------------5~---|--8~---------------|--7~------0--3--3--1--3--|

--------------------------|------------------------|--------------------------|
--------------------------|------------------------|--------------------------|
--------------------------|--------------3---------|--1--1--1--1--1--1-----1--|
--0--0--0--0--0--0-----0--|-----0--0--0-------5----|--------------------------|

------------------------|--------------------------|------------------------|
--------------0---------|--------------------------|------------------------|
-----1--1----------1----|--------------------------|--------------3---------|
-----------0------------|--0--0--0--0--0--0-----0--|-----0--0--0-------5----|

--------------------------|
--------------------------|
--1--1--1--1--1--1--1--0--|
--------------------------|

Chorus

Solo
--------------------------|------------------------|--------------------------|
--------------------------|------------------------|--------------------------|
--------------------------|--------------3---------|--1--1--1--1--1--1-----1--|
--0--0--0--0--0--0-----0--|-----0--0--0-------5----|--------------------------|

------------------------|--------------------------|------------------------|
--------------0---------|--------------------------|------------------------|
-----1--1----------1----|--------------------------|--------------3---------|
-----------0------------|--0--0--0--0--0--0-----0--|-----0--0--0-------5----|

--------------------------|-----------------------|-------------------|
--------------------------|-----------------------|-------------------|
--1--1--1--1--1--1-----1--|-----1--1--0--3--------|-------------------|
--------------------------|-----------------------|--0----------------|

Rest

Bridge
--------------------------|--------------------------|
--------------------------|--------------------------|
--------------------------|--------------3--3--------|
--0--0--0--0--0--0-----0--|-----0--0--0--------5--5--|

--------------------------|--------------------------|
--------------------------|--------------------------|
--------------------------|--------------5--5--1--1--|
--8--8--8--8--8--8-----8--|-----8--8--0--------------|
--------------------------|--------------------------|
--------------------------|--------------------------|
--------------------------|--------------3--3--------|
--0--0--0--0--0--0-----0--|-----0--0--0--------5--5--|

--------------------------|-------------------|--------------------------|
--------------------------|-------------------|--------------------------|
--------------------------|-------------------|--------------------------|
--8--8--8--8--8--8--8--7--|-------------------|--0--0--0--0--0--0-----0--|

---------------------|--------------------------|---------------------|
---------------------|--------------------------|---------------------|
-----------3---------|--------------------------|-----------5----1----|
----------------5----|--8--8--8--8--8--8-----8--|---------------------|

--------------------------|---------------------|--------------------------|
--------------------------|---------------------|--------------------------|
--------------------------|-----------3---------|--------------------------|
--0--0--0--0--0--0-----0--|----------------5----|--8--8--8--8--8--8--8--7--|

Rest

Outro
|--------------------------|--------------------------|--------------------------|
|--------------------------|--------------------------|--------------------------|
|--------------------------|--------------3--3--------|--------------------------|
|--0--0--0--0--0--0-----0--|-----0--0--0--------5--5--|--8--8--8--8--8--8--8--8--|

--------------------------|--------------------------|------------------------|
--------------------------|--------------------------|------------------------|
--------------------------|--------------------------|--------------3---------|
--7--7--7--7--7--7--7--7--|--0--0--0--0--0--0-----0--|-----0--0--0-------5----|

--------------------------|------------------------|--------------------------|
--------------------------|------------------------|--------------------------|
--1--1--1--1--1--1-----1--|-----1--1-----5----1----|--------------------------|
--------------------------|-----------0------------|--0--0--0--0--0--0-----0--|

------------------------|--------------------------|--------------------------|
------------------------|--------------------------|--------------------------|
--------------3---------|--1--1--1--1--1--1--1--1--|--0--0--0--0--------------|
-----0--0--0-------5----|--------------------------|--------------3--3--1--3--|

--------------------------|------------------------|--------------------------|
--------------------------|------------------------|--------------------------|
--------------------------|--------------3---------|--1--1--1--1--1--1-----1--|
--0--0--0--0--0--0-----0--|-----0--0--0-------5----|--------------------------|

------------------------|--------------------------|------------------------|
------------------------|--------------------------|------------------------|
-----1--1-----5----1----|--------------------------|--------------3---------|
-----------0------------|--0--0--0--0--0--0-----0--|-----0--0--0-------5----|

--------------------------|--------------------------|
--------------------------|--------------------------|
--1--1--1--1--1--1--1--1--|--0--0--0--0--------------|
--------------------------|--------------3--3--1--3--|

--------------------------|--------------------------|
--------------------------|--------------------------|
--------------------------|--------------3--3--------|
--0--0--0--0--0--0--0--0--|--0--0--0--0--------5--5--|

--------------------------|--------------------------|
--------------------------|--------------------------|
--1--1--1--1--1--1--1--1--|--1--1--1-----5--5--1--1--|
--------------------------|-----------0--------------|

--------------------------|--------------------------|
--------------------------|--------------------------|
--5--5--5--5--5--5--5--5--|--5--5--5--0--3--3--------|
--------------------------|--------------------5--5--|

--------------------------|--------------------------|-------------------------|
--------------------------|--------------------------|-------------------------|
--1--1--1--1--1--1--1--1--|--0--0--0--0--0--0--0--0--|-------------------------|
--------------------------|--------------------------|--0--0--0--0--0--0-------|





Comments


Popular Element Eighty tabs & chords
Bloodshot Tabs
Broken Promises Tabs
Broken Promises 1 Tabs
Goodbye 1 Tabs
Goodbye 2 Tabs
Newton Trash Tabs
Pancake Land Tabs
Sacrifice Intro 1 Tabs
The Echo Song Tabs
Victims Tabs


Song lyrics



↑ Back to top | Tablatures and chords are parodies/interpretations of the original songs. You may use it for private study, scholarship, research or language learning purposes only
© 2014 AZChords.com Contact us | Privacy policy | DMCA | Add/correct tabs | Request tabs | Top 50 tabs