» » »

Electric Six, Slices Of You Bass tabs (ver.1)

Artists:  A B C D E F G H I J K L M N O P Q R S T U V W X Y Z # 

Slices Of You Bass tabs (ver.1)

Electric Six Tabs
Rating:
0/5 (0 votes)
Slices Of You lessons Tabs too difficult? Try these video lessons and learn fast
                this is so easy to play

intro/verse

G:-----------------------------------------|
D:-----------------------------------------| repeat 5 times
A:-3--1--------1--------6------------------|
E:-------444-1---444-1---------------------|

prechorus

G:-----------------------------------------------------------------------|
D:-----------------------------------------------------------------------|
A:-3--1-----3--1-------3--1----3---1---------1--------1------------------|
E:-------------------------------------444-1---444-1---------------------|


chorus

G:-----------------------------------------|
D:-----------------------------------------|
A:----------44444444-----------66666666----| repeat 4 times
E:-11111111----------44444444--------------|
            

comments powered by Disqus
↑ Back to top | Electric Six Bass for Slices Of You. Lyrics for acoustic guitar and electric guitar. Tablatures and chords are parodies/interpretations of the original songs. You may use it for private study, scholarship, research or language learning purposes only