» » »

Electric Six, Naked Pictures Bass tabs (ver.2)

Artists:  A B C D E F G H I J K L M N O P Q R S T U V W X Y Z # 

Naked Pictures Bass tabs (ver.2)

Electric Six Tabs
Rating:
0/5 (0 votes)
Naked Pictures lessons Tabs too difficult? Try these video lessons and learn fast
                -------------------------------------------------------------------------------
                             Naked Pictures (Of Your Mother) - Electric Six
-------------------------------------------------------------------------------
Album:Fire


Tuning:Standard

0:07
G|-----------------------------------|
D|-----------------------------------|
A|-----------------------------------|
E|--10\------------------------------|

Verse
G|-----------------------------------|
D|-----------------------------------| X10
A|-----2-3---2-3-7--7--2-3-4-4-4-2---|
E|-4-4-----4-------------------------|

Chorus
G|-----------------------------|
D|-----------------------------| 
A|-----------5-4-4-4-4---------|
E|-4-4-4-4-4-----------5-5-5-5-|

G|-----------------------------|
D|-----------------------------| 
A|-----------5-4-4-4-4---------|
E|-4-4-4-4-4-----------5-5-7-5-|

G|-----------------------------|
D|-----------------------------| 
A|-----------5-4-4-4-4---------|
E|-4-4-4-4-4-----------5-5-5-5-|

Post Chorus
G|--44-7-9--44-77-9------|
D|-----------------------| X3
A|-----------------------|
E|-----------------------|

G|--44-7-9---------------| Strum up and down on the D string as you slide
D|-----------10\---------| down. Atleast that's how Smorgasbord plays it 
A|-----------------------| live.
E|-----------------------|

Verse X12

Chorus

Post Chorus



| /  slide up
| \  slide down
| h  hammer-on
| p  pull-off
| ~  vibrato
| +  harmonic
| x  Mute note
===============================================================================
            
Submit corrections

comments powered by Disqus
↑ Back to top | Electric Six Bass for Naked Pictures. Lyrics for acoustic guitar and electric guitar. Tablatures and chords are parodies/interpretations of the original songs. You may use it for private study, scholarship, research or language learning purposes only