» » »

Electrico, Runaway Chords (ver.1)

Artists:  A B C D E F G H I J K L M N O P Q R S T U V W X Y Z # 

Runaway Chords (ver.1)

Electrico Tabs
 Rating:
4/5 (4 votes)
Runaway lessons Tabs too difficult? Try these video lessons and learn fast
1
                Electrico - Runaway

Capo on 1st



[Intro] D - Bm - E - G - A - D

e|-----------------------------------------------------|
B|-----2---5p2---2-2h3~-------2---5p2---2-2s3~---------|
G|--/2---2-----2-----------/2---2-----2----------------|
D|-----------------------------------------------------|
A|-----------------------------------------------------|
E|-----------------------------------------------------|

e|-------------------------------------------3-3-3-2~--|
B|--7p5-3-2-2s3~----7p5-3-2~--7p5-3-2-2s3----5-5-5-3~--|
G|-----------------------------------------2-----------|
D|-----------------------------------------------------|
A|-----------------------------------------------------|
E|-----------------------------------------------------|


[Verse]
D                       Bm
Truly Julie, in another day
                              E-E7-E-E7     G
You know it really isn’t far away 
        A                   D
That I’m longing to be with you
                              Bm
You’ll be waiting for another sun, 
                                      E-E7-E-E7      G
But that’s when things begin to come undone
            A                  F#m
And there's nothing that I can do


[Prechorus]
                                    G
There’s sense that’s running in the air,
                                          Asus4 - A
And that’s the time that you should never dare


[Chorus]
D
Running away you can’t pretend, 
Bm                                 Esus4 - E
Up to the door and back again with me
G A
I know
D
Running away it drives me wild, 
Bm                                  Esus4 - E
Even someone who makes me mild like you
G A     G A       D
I know, I know


[Intro] D - Bm - E - G - A - D

e|-----------------------------------------------------|
B|-----2---5p2---2-2h3~-------2---5p2---2-2s3~---------|
G|--/2---2-----2-----------/2---2-----2----------------|
D|-----------------------------------------------------|
A|-----------------------------------------------------|
E|-----------------------------------------------------|

e|-------------------------------------------3-3-3-2~--|
B|--7p5-3-2-2s3~----7p5-3-2~--7p5-3-2-2s3----5-5-5-3~--|
G|-----------------------------------------2-----------|
D|-----------------------------------------------------|
A|-----------------------------------------------------|
E|-----------------------------------------------------|


[Verse]
D                                  Bm
There’s a place where eveything is free 
                                  E-E7-E-E7       G
And everyone is just like you and me 
          A            D
Like i’ve never seen before
                             Bm
But i would never ever wanna go,
                              E-E7-E-E7      G
To a place unless you told me so, 
         A                    F#m
Then you said that you wanted more


[Prechorus]
                                      G
There’s a sense that’s running in the air 
                                          Asus4 - A
And that’s the time that you should never dare


[Chorus]
D
Running away you can’t pretend, 
Bm                                 Esus4 - E
Up to the door and back again with me
G A
I know
D
Running away it drives me wild, 
Bm                                  Esus4 - E
Even someone who makes me mild like you
G A     G A    
I know, I know


[Bridge/Solo] Bm - A - D - E
              Bm - A - D - E
              G - A

e|----------------------------------------|-----------------------------------------|
B|----------------------------------------|-----------------------------------------|
G|--7--7--9-7-6--6--7-6s------------------|--s7--7--9-7-6--6--7-6s------------------|
D|----------------------7--7--7s9--9--9s--|-----------------------7--7--7s6--6--66--|
A|----------------------------------------|-----------------------------------------|
E|----------------------------------------|-----------------------------------------|

e|---------------------------------------------|
B|---------------------------------------------|
G|----7---7---7---7---7-----6---6--6-6-6-6--6--|
D|--5---5---5---5---5---5s7---7---7-7-7-7-77---|
A|---------------------------------------------|
E|---------------------------------------------|


[Chorus/Outro]
D
Running away you can’t pretend, 
Bm                                 Esus4 - E
Up to the door and back again with me
G A
I know
D
Running away it drives me wild, 
Bm                                  Esus4 - E
Even someone who makes me mild like you
G A     G A     G A       D
I know, I know, I know


End on D
            
Submit corrections

comments powered by Disqus
↑ Back to top | Electrico Chords for Runaway. Lyrics for acoustic guitar and electric guitar. 1 Tablatures and chords are parodies/interpretations of the original songs. You may use it for private study, scholarship, research or language learning purposes only