» » »

Electrico, Runaway Tabs (ver.1)

Artists:  A B C D E F G H I J K L M N O P Q R S T U V W X Y Z # 

Runaway Tabs (ver.1)

Electrico Tabs
 Rating:
3.5/5 (8 votes)
Runaway lessons Tabs too difficult? Try these video lessons and learn fast
                ----------------------------------------------------------------------------
----------------------------------------------------------------------------

Tuning: Standard tuning (EADGBe)

great song by a local band, go get it somewhere, wherever it can be found. oh well, this 
tabbing it out, its just descending scales corresponding to the chord being played.


Intro riff
e|-------------------------------------------------------------------------|
B|---3---6-3---3-3/4~-------/8-6--4-3-3/4--/8-6--4-3~--/8-6--4-3-4---------|
G|-3---3-----3--------(x2)-------------------------------------------------|
D|-------------------------------------------------------------------------|
A|-------------------------------------------------------------------------|
E|-------------------------------------------------------------------------|

e|-------------------------------------------------------------------------|
B|-------4/6-6-6-4-4~------------------------------------------------------|
G|-3-3-3-----------3~------------------------------------------------------|
D|-------------------------------------------------------------------------|
A|-------------------------------------------------------------------------|
E|-------------------------------------------------------------------------|

Intro/verse/chorus - figure out timings for yourself
e|-------------------------------------------------------------------------|
B|-------------------------------------------------------------------------|
G|-8-8-8-8-8--5-5-5-5-5--------------------------------------88888-77777~--|
D|-8-8-8-8-8--5-5-5-5-5--3-3-3-3-3--6-6-6-6-6-(chorus cont.)-88888-88888~--|
A|-6-6-6-6-6--3-3-3-3-3--3-3-3-3-3--6-6-6-6-6----------------66666-55555~--|
E|-----------------------1-1-1-1-1--4-4-4-4-4------------------------------|

Pre-chorus
e|-------------------------------------------------------------------------|
B|-4~----------------------------------------------------------------------|
G|-5~-5~-888-888--777~-----------------------------------------------------|
D|-5~-6~-888-888--888~-----------------------------------------------------|
A|-3~-6~-666-666--555~-----------------------------------------------------|
E|----4~-------------------------------------------------------------------|

Solo
e|-------------------------------------------------------------------------|
B|-4~-4-6-4-------4-------------------4~-4-6-4-------4---------------------|
G|-----------7~-7---7~\3-3-3-3/5-5-5------------7~-7---7~\3-3-3\2-2-2-2----|
D|-------------------------------------------------------------------------|
A|-------------------------------------------------------------------------|
E|-------------------------------------------------------------------------|

e|-------------------------------------------------------------------------|
B|---4---4---4---4-----3---3---3----3-~------------------------------------|
G|-0---0---0---0----/3---3---3---3-(3)~--(back to chorus)------------------|
D|-------------------------------------------------------------------------|
A|-------------------------------------------------------------------------|
E|-------------------------------------------------------------------------|

| /  slide up
| \  slide down
| h  hammer-on
| p  pull-off
| ~  vibrato
| +  harmonic
| x  Mute note
============================================================================
            
Submit corrections

comments powered by Disqus
↑ Back to top | Electrico Tabs for Runaway. Lyrics for acoustic guitar and electric guitar. Tablatures and chords are parodies/interpretations of the original songs. You may use it for private study, scholarship, research or language learning purposes only