» » »

Strange Magic Tabs (ver.2)

Artists:  A B C D E F G H I J K L M N O P Q R S T U V W X Y Z # 

Strange Magic Tabs (ver.2)

Electric Light Orchestra
Rating:
0/5 (0 votes)

Hard to play? Try these video lessons and learn fast.
                “Strange Magic”
 ELO

This song (Im fairly certain) is played with a slide, so I have tabbed 
it out in open G. I have also tabbed the chords out, and if you dont 
want to play slide you can just play it with one finger, in any case 
it is certainly more right than the other versions on here. 

Tuning
D
B
G
D
G
D


   G              Cm              G               Cm           
D|--12/10/9-----|---------------|--12/10/9-----|---------------]
B|--12/10/9/12--|--12/11/10/11--|--12/10/9/12--|--12/11/10/11--]
G|---------/12--|--12/11/10/11--|---------/12--|--12/11/10/11--]
D|--------------|---------------|--------------|---------------]
G|--------------|---------------|--------------|---------------]
D|--------------|---------------|--------------|---------------]
 
   G              G+              G+                        
D|--------10/12-|15/13/15/13/12/13/12/10/12/10]
B|--12-12-10/12-|15/13/15/13/12/13/12/10/12/10]
G|--12-12-------|---------------|-------------]
D|--------------|---------------|-------------]
G|--------------|---------------|-------------]
D|--------------|---------------|-------------]

   G              G+   
D|---10/12-12/10|----------------|]
B|12-10/12-12/10|-11/10/9/8/7/6/4|]
G|12------------|-11/10/9/8/7/6/4|]
D|--------------|----------------|]
G|--------------|----------------|]
D|--------------|----------------|]


Chords in Open G Tuning
All chords can be played with three fingers so you can wear the slide on your finger. 
    
   G  G+ Cm Em Dm7 Am7 D7                                  
D|-0--1--1--2--0---2---0--|]
B|-0--0--1--0--1---1---1--|]
G|-0--0--0--0--2---2---2--|]
D|-0--1--1--2--3---x---0--|]
G|-0--0--0--2--x---x---x--|]
D|-0--0--x--x--x---x---x--|]


  G             G+                 G 
You're sailing softly through the sun
      G+               G
in a broken stone age dawn
     G+     Em
You fly so high.

                Dm7    Em
      I get a strange magic,
                   Dm7    Em
      oh, what a strange magic,
                   Dm7    Em
      oh, it's a strange magic 
            Am7  D7  G
      Got a strange magic,
            Am7  D7  G       Cm
      got a strange magic.

You're walking meadows in my mind,
making waves across my time,
oh no, oh no.

      I get a strange magic,
      oh, what a strange magic,
      oh, it's a strange magic.
      Got a strange magic,
      got a strange magic.

Oh, I'm never gonna be the same again,
now I've seen the way it's got to end,
sweet dream, sweet dream.

      Strange magic,
      oh, what a strange magic,
      oh, it's a strange magic.
      Got a strange magic,
      got a strange magic.

    G         G+         Em           G+
   It's magic, it's magic, it's magic.
            
Hard to play? Try these video lessons and learn fast. | Correct




comments powered by Disqus
↑ Back to top | Tablatures and chords are parodies/interpretations of the original songs. You may use it for private study, scholarship, research or language learning purposes only