» » »

Electric Light Orchestra, Mr Blue Sky Tabs (ver.3)

Artists:  A B C D E F G H I J K L M N O P Q R S T U V W X Y Z # 

Mr Blue Sky Tabs (ver.3)

Electric Light Orchestra Tabs
 Rating:
4/5 (4 votes)
Mr Blue Sky lessons Tabs too difficult? Try these video lessons and learn fast
1
                (1)
This is a great song

Here are the chords used

  F  Em7  A7  Dm  G   Em  Bb
e-1---0---0---1---3---0---1---0--|
B-1---0---2---3---3---0---3---1--|
G-2---0---0---2---0---0---3---0--|
D-3---0---2---0---0---2---3---2--|
A-3---2---0-------2---2---1---3--|
E-1---0-----------3---0----------|


Verse

 F
Sun is shining in the sky
              Em7  A7   Dm
There aint a cloud in sight
              G              Em           A7
It's stoped rainin' and everybody's in a play
                Bb
And don't you know
        C            F       C
It's a beautiful new day, hey hey

 F
Runnin' down the avenue
            Em7   A7  Dm                    G
See how the sun shines brightly in the city
          Em                    A7
On the streets where once was pity
  Bb                  C         F         C
Mister blue sky is living here today,  hey, hey


Chorus

 Oh, Mr blue sky, please tell us why, you had to hide away
e-1-----------0-0----------------1--------------------0-0-|
B-3-----------1-1----------------3--------------------1-1-|
G-2-----------0-0----------------3--------------------2-2-|
D-0-----------2-2----------------3--------------------2-2-|
A-------------3-3----------------1--------------------0-0-|
E---------------------------------------------------------|

 For so long, (so long)   were did things go wrong
e--3----------1-1----------------------3---------1----|
B--3----------1-1--------------------4---4-----3---3--|
G--3----------2-2------------------3---------3--------|      X2
D--5----------3-3-------------------------------------|
A--5----------3-3-------------------------------------|
E--3----------1-1-------------------------------------|

Solo

e---------------------------------------------10---------|
B-------10-11-10h11p10----------------------------13-----|
G----10------------------12b14-r12-10--12b14----------10-|
D-10-----------------------------------------------------|
A--------------------------------------------------------|
E--------------------------------------------------------|

e---------------------------------------------------|
B---------------------------------------------------|
G-12b14--12b14--12b14r12-10------10-12b14-----10-12-|
D----------------------------/12-----------12-------|
A---------------------------------------------------|
E---------------------------------------------------|

e--------------------------------------------------------|
B--------------------------------------10b11r10----10----|
G-12-10-12 12b14---12b14r12 10---10-12----------12-------|
D--------------------------------------------------------|
A--------------------------------------------------------|
E--------------------------------------------------------|

e---------------                            |-pb10r8-6-5--|
B-pb11r10-------                            |-------------|
G---------12-10-       This bit harmonises  |-------------|
D---------------        with this           |-------------|
A---------------                            |-------------|
E---------------                            |-------------|

Verse two is the same as verse one

Chorus two is the same as chorus one


Midle section

F                            Dm           Bb        F     C
Mister Blue sky, mister blue sky, mister blue sky


Verse 3
 F
Mr Blue you did it right,
             Em7  A7   Dm
But soon comes Mister Night,
          G
Creepin' over, now his
 Em                A7
Hand is on your shoulder,
       Bb          C           Db
Never mind I'll remember you this
        Eb
I'll remember you this way.


Chorus 3 is the same as chorus one


Outro

e-----------------|
B-----------------|
G-----------------|   Play till the end
D-6-6-6-6-6-6-6-6-|
A-4-4-4-4-4-4-4-4-|
E-----------------|
            
Submit corrections

comments powered by Disqus
↑ Back to top | Electric Light Orchestra Tabs for Mr Blue Sky. Lyrics for acoustic guitar and electric guitar. 1 Tablatures and chords are parodies/interpretations of the original songs. You may use it for private study, scholarship, research or language learning purposes only