» » »

Mirrorball Tabs (ver.1)

Artists:  A B C D E F G H I J K L M N O P Q R S T U V W X Y Z # 

Mirrorball Tabs (ver.1)

Elbow
Rating:
4/5 (4 votes)

Hard to play? Try these video lessons and learn fast.
                -------------------------------------------------------------------------------
                             Mirror ball - Elbow
-------------------------------------------------------------------------------

Tuning:standard

e|----7------7------7--------7--------7-------7---------7--7---------------|
B|------7------7------7--------7--------7--------7-------------------------|
G|--------------------------------------------------------------played-----|
D|-------------------------------------------------------------alot of times
A|-7-------7------7-------7---------7------7---------7---------------------|
E|-------------------------------------------------------------------------|

Break
e|-------------------------------------------------------------------------|
B|---5-5-5-5-5-5-5-5-5-5-5-5-5---------------------------------------------|
G|---4-4-4-4-4-4-4-4-4-4-4-4-4-----played how ever many times--------------|
D|-----------------------------------nessesary-----------------------------|
A|-------------------------------------------------------------------------|
E|-------------------------------------------------------------------------|

Kind of chorus part
e|--2-----0----0-----------------------------------------------------------|
B|--3-----0----0-----------------------------------------------------------|
G|--2-----2----1-----------------------------------------------------------|
D|--0-----2----2-----------------------------------------------------------|
A|--------4----2-----------------------------------------------------------|
E|-------------------------------------------------------------------------|

Thats all of the parts you just need to figure out how many times you need to play each part.
            
Hard to play? Try these video lessons and learn fast. | Correct




comments powered by Disqus
↑ Back to top | Tablatures and chords are parodies/interpretations of the original songs. You may use it for private study, scholarship, research or language learning purposes only