>
 >
Great Expectations

Great Expectations Guitar Tabs

Elbow - Great Expectations chords, tabs, tablatures, lyrics

Guitar lessons | Add/correct | Request | Top 50 tabs Artists:  A B C D E F G H I J K L M N O P Q R S T U V W X Y Z 0-9

Great Expectations Guitar Tabs – Elbow

CD, Sheet music, Poster

Do you like Great Expectations? Share with your friends now
ChordsTabs
I'm a terrible guitar player.  That said, I've figured out a good chunk of this
song and sort of faked the rest.
To say that I'm proud I've managed THIS much is an understatement.

Enjoy?...

STANDARD TUNING

INTRO AND VERSES

e  ---------0-------|   And if it rains all day, call on you I'll call on
B  ------------0----|
G  ------7--------7-|
D  ---5-------------|
A  7----------------|
E  -----------------| (repeated)

e  ---------0-------|   you.  Like I
B  ------------0----|
G  ------5--------5-|
D  ---3-------------|
A  5----------------|
E  -----------------|  (repeated)

e  ---------0-------|   used to
B  ------------0----|
G  ------5--------5-|
D  ---5-------------|
A  3----------------|
E  -----------------|  (repeated)

OUTRO TO CHORUS

e  -----------------|
B  ---------3-------|
G  ------0-----0----|
D  ---2-----------0-|
A  2----------------|
E  -----------------|

e  -----------------|
B  ---------3-------|
G  ------2-----2----|
D  ---0-----------0-|
A  0----------------|
E  -----------------|

e  0---------------|
B  0---------------|
G  0---------------|
D  2---------------|
A  3---------------|
E  ----------------|

CHORUS INTRO

e  -----------------|
B  ------3-----3----|
G  ---------2-----2-|
D  ---0-------------|
A  0----------------|
E  -----------------|

e  ---------0-------|
B  ------------3----|
G  ------0--------0-|
D  ---2-------------|
A  2----------------|
E  -----------------|
[THIS IS ONLY PLAYED THE FIRST TIME INTO THE CHORUS]

CHORUS

[CODA BEGINS HERE]

e  ---------0---------------------------|   1. A call girl with
B  ------------0------------------------|
G  ------0--------0   2. Stockport sup--|
D  ---2---------------------------------|
A  3------------------------------------|   3. vow was your
E  -------------------------------------|

e  ---------0-------|   1. yesterday
B  ------------3----|
G  ------0--------0-|   2. -porters club
D  ---2-------------|
A  3----------------|   3. smile as we
E  -----------------|

e  ---------0-------------------------------|   1. eyes was our
B  ------------0----------------------------|
G  ------0--------0   2. kindly sup---------|
D  ---2-------------------------------------|
A  3---------------   3. moved down the ai--|
E  -----------------------------------------|

e  ---------0-----------------------------|   1. witness and
B  ------------3--------------------------|
G  ------0--------0   2. -plied us a cho--|
D  ---2-----------------------------------|
A  3--------------------------------------|   3. -sle of the
E  ---------------------------------------|

e  ---------0-------|   1. priest
B  ------------3----|
G  ------2--------2-|    2. -or
D  ---0-------------|
A  0----------------|   3. last
E  -----------------|

e  ---------0-------|   1. ...
B  ------------3----|
G  ------0--------0-|   2. your
D  ---2-------------|
A  2----------------|   3. bus
E  -----------------|

[CODA]

e  ---------0-------|   1. home / and this is where i
B  ------------1----|
G  ------2--------2-|   1. home / and if you're running
D  ---2-------------|
A  0----------------|   2. go / know i'll always
E  -----------------|   (4 TIMES)

e  ---------2-------|   2. go / just when it rains
B  ------------3----|
G  ------4--------4-|   1. late / this is where i'll
D  ---4-------------|
A  2----------------|   2. wait...
E  -----------------|   (4 TIMES)

THIS REPEATS FOR THE SECOND HALF AS WELL.

THE OUTRO IS JUST THE LAST TWO CHORDS REPEATED TWICE


And if it rains all day
Call on you I'll call on you
Like I used to
Slide down beside and wrap you in stories
Tailored entirely for you
I'll remind you
We exchanged a vow
I love you I always will

A call girl with yesterday eyes was our witness and priest
Stockport supporters club kindly provided a choir
Your vow was your smile
As we move down the isle
Of the last bus home
And this is where I go
Just when it rains

Blinking and stoned
Rain in your hair
You only smoke �cause it's something to share
Singing bring on the night
To have and to hold
The sodium light turning silver to gold

Spitfire thin and strung like a violin
I was
Yours was the face with a grace
You were the sun in my Sunday morning
You were the sun in my Sunday morning
Telling me never to go
So I'll live on the smile
And move down the isle
Of the last bus home
And if you're running late
This is where I'll go
Know I'll always wait





Comments


Popular Elbow tabs & chords
Fix Bass Tabs
Lippy Kids 2 Chords
Powder Blue 1 Chords
The Bones Of You Chords
An Audience With The Pope Tabs
Leaders Of The Free World Tabs
New Born Tabs
Newborn Tabs
Puncture Repair Tabs
Forget Myself Ukulele


Song lyrics



↑ Back to top | Tablatures and chords are parodies/interpretations of the original songs. You may use it for private study, scholarship, research or language learning purposes only
© 2014 AZChords.com Contact us | Privacy policy | DMCA | Add/correct tabs | Request tabs | Top 50 tabs