» » »

Ektomorf, I Choke Tabs (ver.1)

Artists:  A B C D E F G H I J K L M N O P Q R S T U V W X Y Z # 

I Choke Tabs (ver.1)

Ektomorf Tabs
Rating:
5/5 (1 vote)
I Choke lessons Tabs too difficult? Try these video lessons and learn fast
                I Choke 
Ektomorf
Outcast
Tuning: C, G, D#, A#, F, A#

My first tab. :)

(Verse)
|-------------------------------------------------------------------|
|-------------------------------------------------------------------|
|-------------------------------------------------------------------|
|-------------------------------------------------------------------|
|-------------------------------------------------------------------|
|--0-0-0-0-0-0--0-0-0-0-0-0--0-0-0-0-0-0--0-0-0-0-0-0---------------|

|----------------------------------------|
|----------------------------------------|
|----------------------------------------|
|----------------------------------------|
|----------------------------------------|
|--0-0-0-0-0-0--0-0-0-0-0-0--0-0-0-0-0-0-|

|--------------------------------|
|--------------------------------|
|--------------------------------|
|--------------------------------|
|--------------------------------|
|--0-0-0-0-0-0--0-0-0-0-0-0------|

|--------------------------------------------------------------------------|
|--------------------------------------------------------------------------|
|--------------------------------------------------------------------------|
|--------------------------------------------------------------------------|
|--------------------------------------------------------------------------|
|--0-0-0-0-0-0--0-0-0-0-0-0--0-0-0-0-0-0--0-0-0-0-0-0--0-------------------|

|--------------------------------------------------------------------------|
|--------------------------------------------------------------------------|
|--------------------------------------------------------------------------|
|--------------------------------------------------------------------------|
|--------------------------------------------------------------------------|
|--0-0-0-0-0-0--0-0-0-0-0-0--0-0-0-0-0-0--0-0-0-0-0-0--0-0-----------------|

|-------|
|-------|
|-------|
|-------|
|-------|
|--0-0--| 

(Chorus)
|-------------------------------------------------------------------------|
|-------------------------------------------------------------------------|
|-------------------------------------------------------------------------|
|-------------------------------------------------------------------------|
|--0--0--1--0--0--1---0--0--4--(1)-1--1--0--0--1--0---0--1----------------|
|--0--0--1--0--0--1---0--0--4--(1)-1--1--0--0--1--0---0--1----------------|

|--------------------------------------------------------------------------|
|--------------------------------------------------------------------------|
|--------------------------------------------------------------------------|
|--------------------------------------------------------------------------|
|--0--0--4--1--1--0---0--1--0--0--1--0--0--4--(1)-1--1--0--0--1--0--0--1---|
|--0--0--4--1--1--0---0--1--0--0--1--0--0--4--(1)-1--1--0--0--1--0--0--1---|

|------------------|
|------------------|
|------------------|
|------------------|
|--0--0--4--(1)-1--|
|--0--0--4--(1)-1--|

(After the second Chorus)
|--------------------------------------------------------------------------|
|--------------------------------------------------------------------------|
|--------------------------------------------------------------------------|
|--------------------------------------------------------------------------|
|--------------------------------------------------------------------------|
|--0--0----0--0----0--0----0--0----0--0----0--0----0--0----0--0------------|

|--------------------------------------------------------------------------|
|--------------------------------------------------------------------------|
|--------------------------------------------------------------------------|
|--------------------------------------------------------------------------|
|--------------------------------------------------------------------------|
|--0--0--0-0--0-0--0-0-0--0--0--0--0--0-0--0-0--0-0-0--0--0----------------|

|--------------------------------------------------------------------------|
|--------------------------------------------------------------------------|
|--------------------------------------------------------------------------|
|--------------------------------------------------------------------------|
|--------------------------------------------------------------------------|
|--0--0--0-0--0-0--0-0-0--0--0---------------------------------------------|
            
Submit corrections

comments powered by Disqus
↑ Back to top | Ektomorf Tabs for I Choke. Lyrics for acoustic guitar and electric guitar. Tablatures and chords are parodies/interpretations of the original songs. You may use it for private study, scholarship, research or language learning purposes only